Opeth - The Devil's Orchard Chords & Tabs

 

Opeth Chords & Tabs

Version: 1 Type: Tab 0 ratings
1 star 2 stars 3 stars 4 stars 5 stars
comments

The Devil's Orchard Tab

   
Intro riff

e|-------------------------|
B|-------------------------|
G|-------------------------|
D|-------------7---7h9-----|
A|-5h7---5h7/8---8-----8-7-|
E|-----6-------------------|

e|------------------------------------------------------------------|
B|------------------------------------------------------------------|
G|-----------------------------------------------9-10-7-------------|
D|---------------6---6h8p6---6-8-8h9p8p6---6-8/9--------9-6---------|
A|-----7---6h7-7---7-------7-------------7------------------8-5-----|
E|-0h7---7------------------------------------------------------7-4-|

Song comes in:

e|------------------------------------------------|
B|------------------------------------------------|
G|----------------------------13-------10---------|
D|----------------------12-------12-------12------|
A|--------------11---------11-------11-------11---|
E|-1----13-10-0----10-0-------------------------0-|

e|------------------------------------------------|
B|------------------------------------------------|
G|----------------------------13-------10---------|
D|----------------------12-------12-------12------|
A|-0------------11---------11-------11-------11---|
E|------13-10-0----10-0-------------------------0-|

God is dead:

e|-------------------|
B|-------------------|
G|-------------------|
D|-------------------|
A|-7-6-------8-7-----|
E|-----6-0-------6-0-|

Little thing during the mystical keyboard part:

e|-------------|
B|-8p7-8p7---7-|
G|---------9---|
D|-------------|
A|-------------|
E|-------------|

e|----------------------------------------------|
B|----------------------------------------------|
G|-8-6--5---------------------------------------|
D|----------------------------6-5-9-8----5-5--5-|
A|-6-4--3-7-----------------7---------7--4-4--4-|
E|--------5-4--0-3~---1-0-6--------------3-3--3-| x2

e|-------------------------|
B|-------------------------|
G|-6-5-4-3-----------------|
D|----------6-5------------|
A|--------------5-4---5--4-|
E|------------------3------|
[ Tab from: http://www.guitartabs.cc/tabs/o/opeth/the_devils_orchard_tab.html ]
e|-1-----------------0-|
B|-2-----------------0-|
G|-3-----7-6-7-9-10--1-|
D|-3--7--------------2-|
A|-1--7--5-4-5-7-8---2-|
E|----5--------------0-|

After the groovy part:

e|-0--0-----|
B|-0----0---|
G|-3------3-|
D|-4--------|
A|-4--------|
E|-2--------| x2

Last riff:

Em Em/F#

e|-0----------------|
B|-0------0---0---0-|
G|-0-0----0---0---0-|
D|-2-2----2---2---2-|
A|-2-2----2---2---2-|
E|-0-0--2---0---2---| Just repeat til the end of the song

Åkesson's solo:
 e|-15----15~--19b20-19b20r19b20~-----19-19b20r19b20~--------|
B|----19~-------------------------19------------------19-17-|
G|----------------------------------------------------------|
D|----------------------------------------------------------|
A|----------------------------------------------------------|
E|----------------------------------------------------------|

                                pm-----------|
19--------------------------------------------------------------|
---19-17b19~---/15b17~r15p12------------------------------------|
-----------------------------12-11------------------------------|
-----------------------------------14-12-14-14b16r14-16b17--14~-|
----------------------------------------------------------------|
----------------------------------------------------------------|

e|----------------------15-(dive down, then upp)|
B|----------------------------------------------|
G|-0-(little dive)------------------------------|
D|----------------------------------------------|
A|----------------------------------------------|
E|----------------------------------------------|

-15-(dive)--------------------------------------------|
------------------------------------------------------|
-----------(dive in)-11-12p11----11-12/17-16-14-16-17-|
------------------------------14----------------------|
------------------------------------------------------|
------------------------------------------------------|
-
e|-----21----21b22r21p19-21~-|
B|-/19----19-----------------|
G|---------------------------|
D|---------------------------|
A|---------------------------|
E|---------------------------|

Comments