Opeth - Patterns In The Ivy Chords & Tabs

 

Patterns In The Ivy Chords & Tabs

Opeth Chords & Tabs

Version: 2 Type: Tab 0 ratings
1 star 2 stars 3 stars 4 stars 5 stars
comments

Patterns In The Ivy Tab

   
 h  = hammer-on
 p  = pull-off
 b  = bend
 r  = bend release
 /  = slide up/down
<5> = natural harmonic
[5] = artifical harmonic
 ~  = vibrato
 tr = trill



Pattern 1 - Repeat 4 Times

E|-----------0------------0-------------------------------------
B|---------0---0------------0-----------------------------------
G|-------2------2------------5----------------------------------                     
D|-----2----------2/5-------------------------------------------
A|---0----------------------------3--2--0-----------------------
E|-------------------------------------------3------------------



Pattern 2 - (Right after Pattern 1) Only 1 Time
[ Tab from: http://www.guitartabs.cc/tabs/o/opeth/patterns_in_the_ivy_tab_ver_2.html ]
E-------------------------------------------------------------------------------------------
B------------0-------------------0------------------------3---------------------------------
G---------2----2-------------------3--------3-------2--3----3--2--0----------2-----4/5--4--0
D-------3---------3------------------4----4-------------------------------2-----------------
A-----3-------------3--------4---------4---------5----------------------3-------------------
E---1----------------------2--------------------3---------------------4---------------------


Repeat Pattern 1 - 4 Times

Repeat Pattern 2 - 1 Time

Repeat Pattern 1 - 4 Times


Pattern 3

E------------------------------------------------------------0-------------------
B-------------------------------------------0-----------0--4---4--0--------------
G------------0---------0--------0-------2-----2----------------------------------
D---------0----0----0-------1--------2----------2----3--------------3------------
A---2/6----------5-------3--------0---------------2------------------2-----------
E--------------------------------------------------------------------------------


Pattern 4

E------------------------------------------------------3----3------3-----3--3
B-------------------------------------------0----------5----3------2-----1--0
G------------0---------0--------0-------2-----2--------0----0------0-----0--0
D---------0----0----0-------1--------2----------2----------------------------
A---2/6----------5-------3--------0------------------------------------------
E---------------------------------------------------0------------0------0---0
Comments