Opeth - In My Time Of Need Chords & Tabs

 

In My Time Of Need Chords & Tabs

Opeth Chords & Tabs

Version: 3 Type: Tab 0 ratings
1 star 2 stars 3 stars 4 stars 5 stars
comments

In My Time Of Need Tab

Band: Opeth
Song: In My Time Of Need
Album: Damnation

Clean Electric and/or Acoustic throughout

INTRO            x4
|---------0--------|
|-------7---7------|
|-----0-------0----|
|---7-----------7~-|
|------------------|
|-0----------------|


VERSE       [1,2,3]                   [4]
|---------0--------|----------0---3------|
|-------7---7------|-----1------1-----1~-|
|-----0-------0----|---4---4--------4----|  x2
|---7-----------7~-|---------------------|
|------------------|-0-------------------|
|-0----------------|---------------------|


PRE-CHORUS
|-4------2------2-----1-----1-----1-----1-----1-----1-----1-----1-----|
|---4------2------2-----1-----1-----1-----1-----1-----1-----1-----1---|
|-----6~-----4~-----4~----3-----3-----3-----3-----3-----3-----3-----3-|
|---------------------------------------------------------------------|
|---------------------------------------------------------------------|
|---------------------------------------------------------------------|

[ Tab from: http://www.guitartabs.cc/tabs/o/opeth/in_my_time_of_need_tab_ver_3.html ]
CHORUS (listen to song for rhythm)                                      x2
|-7-7-7-7-7-7-7-7-7-7-7-7-7-7-7-7-7-7-5-5-5-5-5-5-5-5-5-0-0-0-0-0-0-0-0-0-|
|-8-8-8-8-8-8-8-8-8-7-7-7-7-7-7-7-7-7-5-5-5-5-5-5-5-5-5-0-0-0-0-0-0-0-0-0-|
|-9-9-9-9-9-9-9-9-9-7-7-7-7-7-7-7-7-7-5-5-5-5-5-5-5-5-5-4-4-4-4-4-4-4-4-4-|
|-9-9-9-9-9-9-9-9-9-9-9-9-9-9-9-9-9-9-7-7-7-7-7-7-7-7-7-4-4-4-4-4-4-4-4-4-|
|-7-7-7-7-7-7-7-7-7-9-9-9-9-9-9-9-9-9-7-7-7-7-7-7-7-7-7-2-2-2-2-x-2-2-2-2-|
|-------------------7-7-7-7-7-7-7-7-7-5-5-5-5-5-5-5-5-5---------2---------|


(VERSE) x2


(PRE-CHORUS) x1


(CHORUS) x2


BRIDGE      [1,2,3]                [4]
|-0-0-0-0-0-0-0-0--|------------------|
|-0-0-0-0-0-0-0-0--|-5-5-5-5-6-6-6-6--|
|-2-2-2-2-3-3-3-3--|-5-5-5-5-6-6-6-6--|  x2
|-2-2-2-2-3-3-3-3--|-5-5-5-5-6-6-6-6--|
|-0-0-0-0-1-1-1-1--|-3-3-3-3-4-4-4-4--|
|------------------|------------------|


*HERE BOTH GUITARISTS WHEN LIVE PLAY THE VERSE PART TOGETHER INSTEAD OF THE BENDS HEARD ON THE CD*

(VERSE) x2


(PRE-CHORUS) x1


(CHORUS) x8

*BEGINS TO FADE OUT AFTER 6th TIME*
Comments