Opeth - Hours Of Wealth Chords & Tabs

 

Hours Of Wealth Chords & Tabs

Opeth Chords & Tabs

Version: 1 Type: Bass Tab

Hours Of Wealth Bass Tab

Title: Hours of Wealth
Artist: Opeth
Album: Ghost Reveries

Instrument: 4 String Bass

Tabbed by: Jermey S. (celestial_moon@hotmail.com)

Notes:
Well this is and easy song for the bass line heh...nothing too complicated lol.
Fingers for this one, no picks.

~ - Let Ring



Bass enters (1:06)

G |----------------||
D |----------------||
A |----------------||
E |------4-----2~--|| x5

G |----------------||
D |----------------||
A |----------------||
E |----4---2---2---|| 

G |----------------||
D |----------------||
A |----------------||
E |------4-----2~--|| x4

G |----------------||
D |----------------||
A |----------------||
E |----4---2---2---|| 
[ Tab from: http://www.guitartabs.cc/tabs/o/opeth/hours_of_wealth_btab.html ]
G |----------------||
D |----------------||
A |----------------||
E |------4-----2~--|| x5

G |----------------||
D |----------------||
A |------2-----0~--||
E |----------------|| x8

G |----------------||
D |----------------||
A |----------------||
E |----4---2~------||

G |----------------||
D |----------------||
A |----------------||
E |----4---2---2---||  

G |----------------||
D |----------------||
A |----------------||
E |------4-----2~--|| x4

G |----------------||
D |----------------||
A |----------------||
E |----4---2---2---||

G |----------------||
D |----------------||
A |----------------||
E |------4-----2~--|| x5

G |----------------||
D |----------------||
A |------2-----0~--||
E |----------------|| x8



Enjoy!!!