Opeth - Advent Chords & Tabs

 

Advent Chords & Tabs

Opeth Chords & Tabs

Version: 1 Type: Tab 0 ratings
1 star 2 stars 3 stars 4 stars 5 stars
comments

Advent Tab

   
 OPETH - ADVENT
                      From the Album MORNINGRISE             
                  Copyright 1996 Candlelight Records
                       Version 1.0 - October 98
                       Version 2.0 - January 01
v1.0 - Transcription Done By: Pierre "Boz" Sarda
v2.0 - Corrections and (many) additions by Shawn Mull

Check out Opeth's Domain, the only place to find Opeth tabs:
               http://darkwood.com/opeth/
Legend:
----------------------------------------------------------------
m  - palm mute                          /  - slide up to                       
  - slide down to                      ~  - vibrato                           
"  - tremelo picking                    h  - hammer on 
() - ghost note                         p  - pull off
X  - rest                               t  - tap
<  - volume swell                       *  - artificial harmonic
Gtr I  - left (or center) stereo channel
Gtr II - right stereo channel
----------------------------------------------------------------

Tuning E  (E,A,D,G,B,E)

Riff 1 (acoustic)  6 times
|----------------------------------| 
|----------------------------------| 
|----------------------------------| Gtr
|-5--5-5--5-5---9---9--9---9--9----|  I&II
|-7--7-7X-7-7X--10--10-10X-10-10X--| 
|-0--0-0--0-0---0---0--0---0--0----|
End Riff 1

Riff 2 (heavy)  6 times            | 1 thru 5.                           |
|----------------------------------|-------------------------------------| 
|----------------------------------|-------------------------------------| 
|----------------------------------|-------------------------------------| Gtr
|-2------2-------------------------|---2--------------5-4~-h5p4----------|  I
|-2------2-------------0---2--2~---|---2------/7~---7----------h7--6~-h7-| 
|-0-000--0-000--3-2-0--------------|-0-0-000-----------------------------| 
|   mmm   mmm       m                    mmm                             |
|----------------------------------|-------------------------------------| 
|----------------------------------|-------------------------------------| 
|--------7------7------------------|-------------------------------------| Gtr 
|-5-555----555---55--5-h7p5p4-4~---|------------------5-4~-h5p4----------|  II
|----------------------------------|---7-----/7~----7----------h5--2~----|
|----------------------------------|-0-0-000-----------------------------|
                                         mmm                             
                                   | 6.                                  |
                                   |-------------------------------------|
                                   |-------------------------------------|
                                   |-------------------------------------| Gtr
                                   |---2--------------5-4~-h5p4----------|  I 
                                   |---2-----/7~----7----------h7--0-----|
                                   |-0-0-000-----------------------------|
                                   |     mmm                       hold==|
                                   |-------------------------------------|
                                   |-------------------------------------|
                                   |-------------------------------------| Gtr
                                   |---2--------------5-4~-h5p4----------|  II
                                   |---2-----/7~----7----------h5--------|
                                   |-0-0-000-----------------------1-----|
                                         mmm                       hold==
End Riff 2

|----------------------------------|-------------------------------------|
|----------------------------------|-------------------------------------|
|----------------------------------|-------------------------------2-----| Gtr
|----------------------------------|-------------------------------2-----|  I
|-----------------------------0----|-------------------------------0-----|
|----------------------------------|-------------------------------------|
|===========================| hold ==============================|       |
|----------------------------------|-------------------------------------|
|----------------------------------|-------------------------------------|
|----------------------------------|-------------------------------------| Gtr
|----------------------------------|-------------------------------3-----|  II
|----------------------------------|-------------------------------3-----|
|-----------------------------1----|-------------------------------1-----|
 ===========================| hold ==============================|

[short bass fill]

(acoustic)
|----------------------------------|-------------------------------------|
|-5--------------------------------|-5-----------------------------------|
|-5--------------------------------|-5-----------------------------------| Gtr 
|-7--------------------------------|-7-----------------------------------|  I
|-7--------------------------------|-7-----------------------------------|
|-5--------------------------------|-5-----------------------------------|
|                                                                        |
|----------------------------------|-------------------------------------|
|-5--------------------------------|-5-----------------------------------|
|-5--------------------------------|-5-----------------------------------| Gtr
|-7--------------------------------|-7-----------------------------------|  II
|-7--------------------------------|-7-----------------------------------|
|-5--------------------------------|-5-----------------------------------|

(heavy)
|---------| 
|---------|
|---------| Gtrs
|-7-7--8--|  I&II
|-7-7--8--| 
|-5-5--6--| 
 
Riff 3 (heavy)  8 times             1-3, 5-7.       |4.
|----------------------------------|----------------|--------------------|
|----------------------------------|----------------|--------------------|
|----------------------------------|----------------|--------------------| Gtr
|----------------------------------|---8-8X---8--8--|---8-8X---8--8------|  I
|---7--7~--7-5h7--7~--7-10-9--9~---|-9-8-8X---8--8--|---8-8X---8--8------|
|-0--------------------------------|---6-6X---6--6--|-0-6-6X---6--6------|
|                                                                        |
|----------------------------------|----------------|--------------------|
|----------------------------------|----------------|--------------------| Gtr
|----------------------------------|----------------|--------------------|  II
|-2-2--2-----2-2--2-----8-7--7----|---8-8X---8--8--|---8-8X---8--8------|
|-2-2--2-----2-2--2-----8-7--7----|---8-8X---8--8--|---8-8X---8--8------|
|-0-0--0-----0-0--0-----6-5--5----|-3-6-6X---6--6--|-0-6-6X---6--6------|
 
End Riff 3

|----------------------------------|
|----------------------------------|
|----------------------------------| Gtr
|--------------------/9------------|  I
|---------7---6----------10~-------|
|-8--------------------------------|
|                                  |
|----------------------------------|
|----------------------------------|
|----------------------------------| Gtr
|-10-------------------------------|  II
|---------7---6-7-9------7~--------|
|----------------------------------|
 
|------|
|------|
|------| Gtrs I
|------|   & II
|-5h7--|
|------|
              
Riff 4 (heavy)  4 times
|----------------------------|----------------------------|
|----------------------------|----------------------------|
|----------------------------|----------------------------| Gtrs
|----------------------------|----------------------------|  I&II
|---------5h7---------7p5-7--|---------5h7----------------|
|-0---0-0-------0---0--------|-6---6-6-------6---6-6p5-6--|

|----------------------------|----------------------------|
|----------------------------|----------------------------|
|----------------------------|----------------------------| Gtrs
|----------------------------|----------------------------|  I&II
|-------7-----8-----7--------|--------3-2-----3----5-/-7--|
|-5---5---5-5---5-5----5--3--|-1---1------3-4---4---------|
End Riff 4

Riff 5 (heavy)  4 times
|----------------------------|
|----------------------------|
|------------4--5---4--2~----| Gtr 
|-2----2-0-2-----------------|  I   
|----------------------------| 
|----------------------------|
|                            | 
|----------------------------|
|----------------------------|
|-2--------------------------| Gtr 
|-2----2-0-2-3--2---0-/2~----|  II  
|-0--------------------------|
|----------------------------|
End Riff 5
 
 
Riff 6 (heavy)
| 2 times                    | 2 times
|----------------------------|----------------------------|
|----------------------------|----------------------------|
|----------------------------|----------------------------| Gtr
|----------------------------|----------------------------|  I
|-2---3--2---0---0-3-2-----2-|-2---3--2---0---0-3-2-----2-|
|--------------1-------------|--------------1-------------|
|                            |                            |
|----------------------------|----------------------------|
|----------------------------|----------------------------|
|----------------------------|----------------------------| Gtr
|----------------------------|-4---5--4---2---2-5-4-----4-|  II
|-2---3--2---0---0-3-2-----2-|--------------3-------------|
|--------------1-------------|----------------------------|

End Riff 6

Repeat Riff 5  (4 times)

Riff 6a
| 2 times                    |  
|----------------------------|----------------------------|
|----------------------------|----------------------------|
|----------------------------|-4--------------------------| Gtr
|----------------------------|-4--------------------------|  I
|-2---3--2---0---0-3-2-----2-|-2---3--2---0---0-3-2-----2-|
|--------------1-------------|--------------1-------------|
|                            |                            |
|----------------------------|----------------------------|
|----------------------------|----------------------------|
|----------------------------|----------------------------| Gtr
|----------------------------|-4---5--4---2---2-5-4-----4-|  II
|-2---3--2---0---0-3-2-----2-|--------------3-------------|
|--------------1-------------|----------------------------|

|----------------------------|
|----------------------------|
|----------------4-4-4-4X----| Gtr 
|----------------4-4-4-4X----|  I   
|-2---3--2---0---2-2-2-2X----|
|----------------------------|
|                            | 
|----------------------------|
|----------------------------|
|----------------4-4-4-4X----| Gtr 
|-4---5--4---2---4-4-4-4X----|  II  
|----------------2-2-2-2X----| 
|----------------------------|

End Riff 6a

 
 
Riff 7 (acoustic)  6 times
|----------------------------|
|-----3-----3----3---3---3---|
|---2-----2----3---2---0-----| Gtrs 
|-0--------------------------|  I&II
|-------0--------------------|  (Gtr II comes in
|----------------------------|   on 2nd time)

End Riff 7 
 
 
Riff 8 (acoustic)  4 times
|-----0---0---------------|-----0---0---------------|
|-------0-----------------|-------0-----------------|
|---4---------------------|---4---------------------| Gtrs
|-----------------0---0-0-|-------------0---0-0-0-0-|  I&II
|-2-----------0h2---2-----|-2---------0---2---------|
|-------------------------|-------------------------|
End Riff 8
        
        
Repeat Riff 7  (7 times)

|-------------------------|
|-3-----3----3-3--3---3---|
|-------------------------| Gtr
|-0-----0----0-0--0---0---|  II
|-------------------------|
|-------------------------|

Riff 8a  (4 times)
|-----0---0---------------|-----0---0---------------|
|-------0-----------------|-------0-----------------|
|---4---------------------|---4---------------------| Gtrs
|-----------------0---0-0-|-------------0---0-0-0-0-|  I  (acoustic)
|-2-----------0h2---2-----|-2---------0---2---------|
|-------------------------|-------------------------|
|                                                   | 
|-------------------------|-------------------------|
|-------------------------|-------------------------|
|-4-----------------------|-4-----------------------| Gtr 
|-4-----------4-----5-----|-4---------4---5---2-----|  II (heavy)  
|-2-----------4-----5-----|-2---------4---5---2-----|
|-------------2-----3-----|-----------2---3---0-----|
End Riff 8a

|-------------------------|-------------------------|
|-------------------------|-------------------------|
|-------------------------|-------------------------| Gtr 
|-------4---4-4---4-------|-------4---4-4---4-------|  I  (clean with 
|-2---2---2-----------2---|-5---5---5-----------5---|      delay)
|-------------------------|-------------------------|
| m   m m m m m   m   m     m   m m m m m   m   m   |
|-------------------------|-------------------------|
|-------------------------|-------------------------|
|-4-X---------------------|-------------------------| Gtr 
|-4-X---------------------|-------------------------|  II (heavy)  
|-2-X---------------------|-------------------------|
|-------------------------|-------------------------|

(heavy)
|-------------------------| 
|-------------------------| 
|------------------6-6----| Gtr 
|-----------9-7--------7--|  I 
|-4---5--4------7---------| 
|-------------------------| 
|                         |
|-------------------------| 
|-------------------------| 
|-------------------------| Gtr 
|-4--7-6-4--5-4-----------|  II
|-4-------------5--4------|    
|-2------------------5-2--|    
 
Riff 9 (heavy)  4 times
|-------------------------|-------------------------|
|-------------------------|-------------------------|
|-------------------------|------------------6-6----| Gtr 
|-------------------------|-----------9-7--------7--|  I  
|-9----7-5-7--9----7-5-7--|-7---5--4------9---------|
|-------------------------|-------------------------|
|                                                   | 
|-------------------------|-------------------------|
|-------------------------|-------------------------|
|-------------------------|-------------------------| Gtr 
|------4-----------4------|----7-6-4--5-4-----------|  II          
|-2-----------5-----------|-4-------------5--4------|
|-------------------------|--------------------5-2--|
End Riff 9
 
|-------------------------|-------------------------|
|-------------------------|-------------------------|
|-------------------------|-------------------------| Gtr 
|-------------------------|-------------------------|  I (clean)  
|-9-----------------------|-5-----------------------|           
|-------------------------|-------------------------|
| <                         <                       | 
|-------------------------|-------------------------|
|-------------------------|-------------------------|
|-------------------------|-------------------------| Gtr 
|-------4---4-4---4-------|-------4---4-4---4-------|  II (clean with 
|-2---2---2-----------2---|-5---5---5-----------5---|      delay)
|-------------------------|-------------------------|
  m   m m m m m   m   m     m   m m m m m   m   m
|-------------------------|-------------------------|
|-------------------------|-------------------------|
|-------------------------|-------------------------| Gtr 
|-------------------------|-7------------9----------|  I (clean)
|-7-----------------------|-------------------------|            
|-------------------------|-------------------------|
| <                         <            <          | 
|-------------------------|-------------------------|
|-------------------------|-------------------------|
|-------------------------|-------------------------| Gtr 
|-------6---6-7---6---4---|-5---4-------------------|  II (clean with
|-4---4---4---------------|---------5---4-----------|      delay)     
|-------------------------|-----------------5---2---|
  m   m m m m m   m   m     m   m   m   m   m   m
|-------------------------|-------------------------|
|-------------------------|-------------------------|
|-------------------------|-------------------------| Gtr 
|-------------------------|-------------------------|  I (clean)
|-11----------------------|-------------------------|    
|-------------------------|-------------------------|
| <                                                 | 
|-------------------------|-------------------------|
|-------------------------|-------------------------|
|-------------------------|-------------------------| Gtr 
|-------4---4-4---4-------|-------4---4-4---4-------|  II (clean with 
|-2---2---2-----------2---|-5---5---5-----------5---|      delay)
|-------------------------|-------------------------|
  m   m m m m m   m   m     m   m m m m m   m   m
|-------------------------|-------------------------|
|-------------------------|-------------------------|
|-------------------------|-------------6---6-------| Gtr 
|-------------------------|-9---7---------------7---|  I (heavy)
|-------------------------|---------9---------------|    
|-------------------------|-------------------------|
|                                                   |
|-------------------------|-------------------------|
|-------------------------|-------------------------|
|-------------------------|-------------------------| Gtr 
|-------6---6-7---6---4---|-5---4-------------------|  II (clean with
|-4---4---4---------------|---------5---4-----------|      delay)     
|-------------------------|-----------------5---2---|
  m   m m m m m   m   m    (heavy)================= 
 
Repeat Riff 9 (4 times)

(heavy)
|-------------------------|-------------------------|
|-------------------------|-------------------------|
|-------------------------|-------------------------| Gtr 
|-------------------------|----------------------4--|  I&II
|-4--4-4-4-4--4--4-4-4-4--|------4---5---7---5------|
|-------------------------|-/5----------------------|

|-------------------------|-------------------------|
|-------------------------|-------------------------|
|-------------------------|-------------------------| Gtr 
|-4--4-4-4-4--5--5-5-5-5--|-7--7-7-7-7--9--9-9-9-9--|  I
|-------------------------|-------------------------|
|-------------------------|-------------------------|
|                                                   |
|-------------------------|-------------------------|
|-------------------------|-------------------------|
|-------------------------|-------------------------| Gtr
|-4--4-4-4-4--4--4-4-4-4--|-4--4-4-4-4--4--4-4-4-4--|  II 
|-------------------------|-------------------------|
|-------------------------|-------------------------|

|-------------------------|-------------------------|
|-------------------------|-------------------------|
|-------------------------|-------------------------| Gtr 
|-11-11-11-11-11-11-11-11-|-11-11----------------4--|  I
|-------------------------|----------4--5--7--5-----|
|-------------------------|------/5-----------------|
|                                                   |
|-------------------------|-------------------------|
|-------------------------|-------------------------|
|-------------------------|-------------------------| Gtr
|--0--0--0--0--0--0--0--0-|--0--0----------------4--|  II
|-------------------------|----------4--5--7--5-----|
|-------------------------|------/5-----------------|

|-------------------------|-------------------------|
|-------------------------|-------------------------|
|-------------------------|-------------------------| Gtr 
|-4--4-4-4-4--4--4-4-4-4--|-4--4--------4--4--------|  I
|-------------------------|-4--4--------4--4--------|
|-------------------------|-2--2--------2--2--------|
|                                                   |
|-------------------------|-------------------------|
|-------------------------|-------------------------|
|-------------------------|-------------------------| Gtr
|-------------------------|-4--4--------4--4--------|  II
|-2--2-2-2-2--2--2-2-2-2--|-4--4--------4--4--------|
|-------------------------|-2--2--------2--2--------|

|-------------------------|-------------------------|
|-------------------------|-------------------------|
|-------------------------|-------------------------| Gtr 
|------4--2--0--2---------|-------------------------|  I
|-2-----------------------|-5---2---0-2--------4----|
|-------------------------|-----------------4--5----|
|                                                   |
|-------------------------|-------------------------|
|-------------------------|-----3-------------------|
|------4------------------|---------2-------2-------| Gtr
|-4-----------------------|-----------4--------4----|  II
|------------5--4---5--7--|-----------5--------4----|
|-------------------------|-3-----------------------|

Riff 10 (acoustic)  4 times
|-------------------------|-------------------------|
|-------------------------|-----3-------------------|
|------4------------------|---------2-------2-------| Gtr 
|-4-----------------------|-----------4--------4----|  I
|------------5--4---5--7--|-----------5--------4----|
|-------------------------|-3-----------------------|
|                                                   |
|-------------------------|-------------------------|
|-------------------------|-------------------------|
|-------------------------|-------------------------| Gtr
|------4--2--0--2---------|-------------------------|  II
|-2-----------------------|-5---2---0-2--------4----|
|-------------------------|-----------------4--5----|

End Riff 10
[ Tab from: http://www.guitartabs.cc/tabs/o/opeth/advent_tab.html ]
Riff 11  2 times    
|----------------------------------|----------------------------------| 
|----------------------------------|----------------------------------| 
|----------------------------------|----------------------------------| Gtr   
|----------------------------------|----------------------------------|  I
|----------------------------------|----------------------------------| 
|-5~-------------------------------|-2~-------------------------------| 
| <                                  <                                |
|----------------------------------|----------------------------------| 
|---------1----------------1-------|---------2----------------2-------| 
|-----4-----4---4------4-----4-----|-----2-----2---2------2-----2---2-| Gtr
|---2---2-----2------2---2-----2---|---4---4-----4------4---4-----4---|  II
|-0----------------0-------------0-|-4----------------4---------------| (acoustic)
|----------------------------------|----------------------------------|

Riff 11a (clean)  2 times
|----------------------------------|----------------------------------| 
|----------------------------------|----------------------------------| 
|----------------------------------|----------------------------------| Gtr   
|----------------------------------|----------------------------------|  I
|-7~-------------------------------|-4~-------------------------------| 
|----------------------------------|----------------------------------| 
| <                                  <                                |
|----------------------------------|----------------------------------| 
|---------1----------------1-------|---------2----------------2-------| 
|-----4-----4---4------4-----4-----|-----2-----2---2------2-----2---2-| Gtr
|---2---2-----2------2---2-----2---|---4---4-----4------4---4-----4---|  II
|-0----------------0-------------0-|-4----------------4---------------|
|----------------------------------|----------------------------------| 

Repeat Riff 10 (4 times)

|----------------------------------|----------------------------------| 
|----------------------------------|----------------------------------| 
|----------------------------------|----------------------------------| Gtr   
|----------------------------------|----------------------------------|  I
|----------------------------------|----------------------------------| (heavy)
|-5~-------------------------------|-2~-------------------------------| 
| <                                  <                                |
|----------------------------------|----------------------------------| 
|---------1----------------1-------|---------2----------------2-------| 
|-----4-----4---4------4-----4-----|-----2-----2---2------2-----2---2-| Gtr
|---2---2-----2------2---2-----2---|---4---4-----4------4---4-----4---|  II
|-0----------------0-------------0-|-4----------------4---------------| 
|----------------------------------|----------------------------------| 

|----------------------------------|----------------------------------| 
|----------------------------------|----------------------------------| 
|----------------------------------|----------------------------------| Gtr   
|----------------------------------|----------------------------------|  I
|----------------------------------|-------------------------5--/--7--|
|-5~-------------------------------|-2~---------------0---------------| 
| <                                  <                                |
|----------------------------------|----------------------------------| 
|---------1----------------1-------|---------2----------------2-------| 
|-----4-----4---4------4-----4-----|-----2-----2---2------2-----2---2-| Gtr
|---2---2-----2------2---2-----2---|---4---4-----4------4---4-----4---|  II
|-0----------------0-------------0-|-4----------------4---------------| 
|----------------------------------|----------------------------------| 

|----------------------------------|----------------------------------| 
|----------------------------------|----------------------------------| 
|----------------------------------|----------------------------------| Gtr   
|----------------------------------|----------------------------------|  I
|-3--------------------------------|----------------------------------|
|----------------------------------|-/5~------------------------------| 
|                                     hold============================| 
|----------------------------------|----------------------------------| 
|---------1----------------1-------|---------2----------------2-------| 
|-----4-----4---4------4-----4-----|-----2-----2---2------2-----2---2-| Gtr
|---2---2-----2------2---2-----2---|---4---4-----4------4---4-----4---|  II
|-0----------------0-------------0-|-4----------------4---------------| 
|----------------------------------|----------------------------------| 

|----------------------------------|----------------------------------| 
|----------------------------------|----------------------------------| 
|----------------------------------|----------------------------------| Gtr   
|----------------------------------|----------------------------------|  I
|----------------------------------|----------------------------------|
|----------------------------------|----------------------------------| 
|                                                                     | 
|----------------------------------|----------------------------------| 
|---------1----------------1-------|---------2----------------2-------| 
|-----4-----4---4------4-----4-----|-----2-----2---2------2-----2---2-| Gtr
|---2---2-----2------2---2-----2---|---4---4-----4------4---4-----4---|  II
|-0----------------0-------------0-|-4----------------4---------------| 
|----------------------------------|----------------------------------| 

Riff 11b (acoustic)  4 times 
|----------------------------------|----------------------------------| 
|-----------1--1-------------------|--------------------------0-------| 
|-----4----------------------------|------13--------------0-----------| Gtr   
|---2-------2--2-------------------|---11-------0-------4---4---------|  I
|-0--------------------------------|-9--------------2-----------------|
|----------------------------------|----------------------------------| 
|                                                                     | 
|----------------------------------|----------------------------------| 
|---------1----------------1-------|---------2----------------0-------| 
|-----4-----4---4------4-----4-----|-----2----------------0-----0---0-| Gtr
|---2---2-----2------2---2-----2---|---4---4----4-------4---4-----4---|  II
|-0----------------0-------------0-|-4--------------2-----------------| 
|----------------------------------|----------------------------------| 
End Riff 11b
|-------------------------| 
|-----6----5--------------| 
|-----7----5--------------| Gtr 
|-7---7----5--------------|  I 
|-5---5----3--------------| 
|-------------------------| 
|          hold===========|
|-------------------------| 
|-----3----2--------------| 
|-----0----2--------------| Gtr 
|-4---4----4--------------|  II
|-5---5----4--------------|    
|----------2--------------|    
           hold===========

(heavy)
|------------------------------------|--------------------------------------|
|------------------------------------|--------------------------------------|
|------------------------------------|--------------------------------------| Gtr
|-------------------5----------------|-7-8p7p5---------------------7--7-----|  I
|-8--------7-----------------8-------|--------8-7h8p7-7------------7--7-----|
|------------------------------------|-----------------------------5--5-----|
|                                                                           |
|------------------------------------|--------------------------------------|
|------------------------------------|--------------------------------------|
|-----------------------7p5----------|--------------------------------------| Gtr
|-------------------8--8---8p7-------|-7~----------------7--8p7p5--7--7-----|  II
|-5----------------------------------|---------------------------8-7--7-----|
|----------5-------------------------|-----------------------------5--5-----|

Riff 12  6 times
|------------------------------------|--------------------------------------|
|------------------------------------|--------------------------------------|
|------------------------------------|--------------------------------------| Gtr
|-------------------5--5555----------|-7-8p7p5---------------5-7--5-7h8p7---|  I
|-8--8888--7--7777-----------8--8888-|--------8-7h8p7-7---5-7-------------8-|
|------------------------------------|-------------------5------------------|
|                                                                           |
|------------------------------------|--------------------------------------|
|------------------------------------|--------------------------------------|
|-----------------------7p5----------|--------------------------------------| Gtr
|-------------------8--8---8p7--7777-|-7-8p7p5---------------5-7--5-7h8p7-7~|  II
|-5--5555----------------------------|--------8-7h8p7-7---5-7---------------|
|----------5-5555--------------------|-------------------5------------------|
End Riff 12

Riff 12a (8 times)       | 1-7.                   | 8.          |
|------------------------|------------------------|-------------|
|------------------------|------------------------|-------------|
|------------------------|------------------------|-------------| Gtr
|-2--2-------------------|-5--5--0h2h54--4-4-4-4-|-5--5--0h2h5-|  I
|-------------2--2-2-2-2-|------------------------|-------------|
|-------0h2h3------------|------------------------|-------------|
|                                                 |             |
|------------------------|------------------------|-------------|
|------------------------|------------------------|-------------|
|-------4p2--------------|------------------------|-------------| Gtr
|-2--2-----h5p4--4-4-4-4-|-2--2-------------------|-2--2--------|  II
|------------------------|-------------5--5-5-5-5-|-------------|
|------------------------|-------2h3h5------------|-------2h3h5-|
End Riff 12a

 4 times                       |1-3.
|------------------------------|--------|
|------------------------------|--------|
|------------------------------|--------| Gtr
|-----7---6-666-6-666--7--6----|-6------|  I&II
|-5--------------------------5-|----555-|  (Gtr I comes in       
|------------------------------|--------|   on 4th time)
            mmm   mmm               mmm

 4 times                       |1-3.
|------------------------------|--------|
|------------------------------|--------|
|------------------------------|--------| Gtr
|------------------------------|--------|  I&II
|-----7---6-666-6-666--7--6----|-6------|  
|-5--------------------------5-|----555-|  
            mmm   mmm               mmm

 4 times                      
|---------------------------------------|
|---------------------------------------|
|---------------------------------------| Gtr
|---------------------------------------|  I&II
|-----5---4-444-4-444--5--4-----4-------|  
|-3--------------------------3-----333--|  
            mmm   mmm              mmm
 
|-------------|
|-------------|
|-------------| Gtr
|-2X--2X--2X--|  I&II
|-2X--2X--2X--|
|-0X--0X--0X--|

Riff 13 (4 times)
|------------------------------------|
|------------------------------------|
|------------------------------------| Gtr
|------------------------------------|  I&II
|-5/6-6-65-5-5/10-10-109-9-96-65-|  
|------------------------------------|  
End Riff 13
 
Riff 14 (4 times)
|------------------------------------|
|------------------------------------|
|------------------------------------| Gtr
|-----------------2--222--2----2-2-2-|  I
|-2----1----------2--222--2----2-2-2-|  
|-----------0h1---0--000--0----0-0-0-|  
|                 m  mmm       m m m |
|------------------------------------|
|------------------------------------|
|-4~---4~----------------------------| Gtr
|-----------------2--222--2----2-2-2-|  II
|-----------------2--222--2----2-2-2-|  
|-----------0h1---0--000--0----0-0-0-|  
       *          m  mmm  m    m m m
End Riff 14

Repeat Riff 13 (4 times) 

Repeat Riff 14 (1 time)

 2 times
|------------------------------------|
|------------------------------------|
|------------------------------------| Gtr
|-----------------2-2-2-2-2-2-2-2----|  I
|-2----1----------2-2-2-2-2-2-2-2----|  
|-----------0h1---0-0-0-0-0-0-0-0----|  
|                 m m m m m m m m    |
|------------------------------------|
|------------------------------------|
|-4----4~----------------------------| Gtr
|-----------------2-2-2-2-2-2-2-2----|  II
|-----------------2-2-2-2-2-2-2-2----|  
|-----------0h1---0-0-0-0-0-0-0-0----|  
       *          m m m m m m m m     

Repeat Riff 14 (1 time)

Repeat Riff 13 (4 times)

(acoustic)
|---------------------------------|---------------------------------|
|-----3--------3--------1---------|---------3---------------3-------|
|---1--------1--------0----0------|-------5---5-----------5---5-----| Gtr
|-0-----0--0--------3--------3----|-----5-------5-------5-------5---|  I 
|-----------------3------------3--|---5-----------5---5-----------5-|
|---------------------------------|-3---------------3---------------|
|                                                                   |
|---------------------------------|---------------------------------|
|---------------------------------|---------------------------------|
|---------------------------------|---------------------------------| Gtr
|---------------------------------|-------------------------9-------|  II
|---------------------------------|---------------------------------|
|---------------------------------|---------------------------------|
                                                            < (slow swell)

|---------------------------------|---------------------------------|
|---------0---------------0-------|---------0---------------0-------|
|-------2---2-----------2---2-----|-------2---2-----------2---2-----| Gtr
|-----3-------3-------3-------3---|-----3-------3-------3-------3---|  I
|---0-----------0---0-----------0-|---0-----------0---0-----------0-|
|-0---------------0---------------|-0---------------0---------------|
|                                                                   |
|---------------------------------|---------------------------------|
|---------------------------------|---------------------------------| 
|-----7------5----4------5-----2--|-4------2------------------------| Gtr
|---------------------------------|--------------3----2-------------|  II
|---------------------------------|---------------------------------|
|---------------------------------|---------------------------------| 
      <      <    <      <     <    <      <     <    < hold========
 
|---------------------------------|---------------------------------|
|---------0---------------0-------|---------0---------------0-------|
|-------2---2-----------2---2-----|-------2---2-----------2---2-----| Gtr
|-----3-------3-------3-------3---|-----3-------3-------3-------3---|  I
|---0-----------0---0-----------0-|---0-----------0---0-----------0-|
|-0---------------0---------------|-0---------------0---------------|
|                                                                   |
|---------------------------------|---------------------------------|
|---------------------------------|---------------------------------| 
|9----7------5----4------5-----2--|-4------2------------------------| Gtr
|---------------------------------|--------------3----2-------------|  II
|---------------------------------|---------------------------------|
|---------------------------------|---------------------------------| 
 <    <      <    <      <     <    <      <     <    <

Riff 16 (4 times)   1-3.|                     4.|
|-----------------------|-----------------------| 
|-----------------------|-----------------------| 
|-----5------5----5---5-|-----5------5----5---5-| Gtr  
|---5------5------------|---5------5------------|  I
|-3------4--------------|-3------4--------------| 
|---------------4---3---|---------------4---3---|
|                                               |                       
|-----------------------|-----------------------|
|-----------------------|-----------------------|
|-----------------------|-----------------------| Gtr
|-----------------------|-5----5/6--------------|  II
|-3----3/4--------------|---------------6---5---|
|---------------4---3---|-----------------------|
End Riff 16

|-0---|
|-0---|
|-0---| Gtr  
|-2---|  II (play when Riff 17
|-2---|      begins, first time only)  
|-0---|
  ^upstroke

Riff 17 (4 times)
|---------------------------------|
|---------0---------------0-------|
|-------2---2-----------2---2-----| Gtr
|-----3-------3-------3-------3---|  I
|---0-----------0---0-----------0-|
|-0---------------0---------------|
End Riff 17

Repeat Riff 16 (4 times)

|---------------------------------|---------------------------------|
|---------0---------------0-------|---------0---------------0-------|
|-------2---2-----------2---2-----|-------2---2-----------2---2-----| Gtr
|-----3-------3-------3-------3---|-----3-------3-------3-------3---|  I
|---0-----------0---0-----------0-|---0-----------0---0-----------0-|
|-0---------------0---------------|-0---------------0---------------|
|                                                                   |
|---------------------------------|---------------------------------|
|---------------------------------|---------------------------------| 
|---------------------------------|---------------------------------| Gtr
|---------------------------------|---------------------------------|  II
|-------------2-/-7---------------|---------------------------------|
|-0-------------------------------|---------------------------------| 

Repeat Riff 17 (4 times)

Repeat Riff 16 (4 times) [only Gtr I part]

Repeat Riff 17 (4 times)

Repeat Riff 16 (4 times) [only Gtr I part]

Repeat Riff 17 (4 times)

(acoustic)
|---------------------------------|---------------------------------|
|-12----10----8-----------7---5-7-|---7-----------------------------| 
|-12----11----9-------------------|-7-------------------------------| Gtr
|---------------------------------|------5-4-0h2-----2--------2-----|  I
|---------------------------------|------------------3-----3--------|
|---------------------------------|---------------------5-----------| 
|                                                                   |
|---------------------------------|---------------------------------|
|---------------------------------|---------------------------------| 
|-4-----2-------------------------|---------------------------------| Gtr
|-5-----4-----2---4-------5---5-4-|---------------------------2-----|  II
|---------------2-----------------|-5-4------2-------3-(0)----3-----|
|---------------------------------|------3-2-0----------------------| 

|---------------------------------|---------------------------------|
|---------------------------------|-------------5-------------------| 
|----------------0----------------|-------4-------------------------| Gtr
|-----------4---------0-----4-/-5-|----5-----5-----------0----------|  I  
|--------0------------------------|-5-----------------2-----2-----2-|           
|-3---2---------------------------|----------------3-----------3----| 
|                                                                   |
|---------------------------------|---------------------------------|
|---------------------------------|---------------------------------| 
|---------------------------------|----------------2-----------0--2-| Gtr
|-2---4-----4---2-/-4-4-----4-h-5-|-2--------4--5-------------------|  II
|--------5------------------------|---------------------------------|
|---------------------------------|---------------------------------| 

|---------------------------------|---------------------------------|
|---------------------------------|-------------3-------------------| 
|--------------0------------------|-------0-------------------------| Gtr
|-------0----------0--------0-h-2-|----2-----2----------------------|  I          
|----2-----2-------2--------------|-3-------------------------------|           
|-3-------------------------------|---------------------------------| 
|                                                                   |
|---------------------------------|-------------0-------------------|
|---------------------------------|-------------3-------------------| 
|-4--2--0--2----------------------|-------0-------------------------| Gtr
|------------------0--------0-h-2-|----2-----2----------------------|  II
|------------------2--------------|-3-------------------------------|
|---------------------------------|---------------------------------| 

|---------------------------------|---------------------------------|
|-------------3-------------------|-----------------3---------------| 
|-------0-------------------------|---------0-----------------------| Gtr
|----0-----0----------------------|-----0-------0-------------------|  I          
|-2-------------------------------|-1-------------------------------|           
|---------------------------------|---------------------------------| 
|                                                                   |
|---------------------------------|---------------------------------|
|-------------3-------------------|-----------------3---------------| 
|-------0-------------------------|---------0-----------------------| Gtr
|----0-----0----------------------|-----0-------0-------------------|  II
|-2-------------------------------|-1-------------------------------|
|---------------------------------|---------------------------------| 
                                                    hold============

 12 times
|----------------0--------------| 
|-----------0---------0---------| 
|------5-------------------5----| Gtr
|-7-----------------------------|  I
|-------------------------------|
|-------------------------------| 

Check out Opeth's Domain, the only place to find Opeth tabs:
               http://darkwood.com/opeth/
Comments