Operation Ivy - The Crowd Chords & Tabs

 

The Crowd Chords & Tabs

Operation Ivy Chords & Tabs

Version: 2 Type: Tab 0 ratings
1 star 2 stars 3 stars 4 stars 5 stars
comments

The Crowd Tab

so this is how play it with my band - think this is right!
==============

|----------------|-------------------------------------------|
|----------------|-------------------------------------------|
|--/11--7-----9--|--11-11-11-9-7-7-7---------11-9-9-9--------| Intro
|--/11--7--7--9--|--11-11-11-9-7-7-7-9-7-7-7-11-9-9-9--------|
|--/9---5--7--7--|--9--9--9--7-5-5-5-9-7-7-7-9--7-7-7--------|
|----------5-----|-------------------7-5-5-5-----------------|

[ Tab from: http://www.guitartabs.cc/tabs/o/operation_ivy/the_crowd_tab_ver_2.html ]
|------------------------------------------------------------------------|
|------------------------------------------------------------------------|
|--11-11-11-11-11-11-11-11--7-7-7-7-7-7-7-----------------9-9-9-9-9-9-9--|
|--11-11-11-11-11-11-11-11--7-7-7-7-7-7-7--7-7-7-7-7-7-7--9-9-9-9-9-9-9--|Verse
|--9--9--9--9--9--9--9--9---5-5-5-5-5-5-5--7-7-7-7-7-7-7--7-7-7-7-7-7-7--|
|------------------------------------------5-5-5-5-5-5-5-----------------|


|-------------------------------------------|
|-------------------------------------------|
|--11-11-11-9-7-7-7---------11-9-9-9--------| Chorus  (also solo-part)
|--11-11-11-9-7-7-7-9-7-7-7-11-9-9-9--------|
|--9--9--9--7-5-5-5-9-7-7-7-9--7-7-7--------|
|-------------------7-5-5-5-----------------|


|---------------------------|
|---------------------------|
|---11-7-----11-------------| Refrain
|---11-7-7-9-11-------------|
|---9--5-7-9-9--------------|
|--------5-7----------------|



==============================
corrections or ideas to shmu_james@web.de
Comments