Operation Ivy - Knowledge Chords & Tabs

 

Knowledge Chords & Tabs

Operation Ivy Chords & Tabs

Version: 6 Type: Tab 0 ratings
1 star 2 stars 3 stars 4 stars 5 stars
comments

Knowledge Tab

   
SONG: Knowledge
ARTIST: Operation Ivy
ALBUM: Energy
TABBED BY: Tedrick Dingo of Emapthy

I noticed that no one had the correct tab for this song. I KNOW this tab is right because
I put the song in slow motion and made sure I had the correct number of beats. I love
OPIV so I decided to do a favor to all those who wanted this tab. Standard tuning and
distortion.

Intro/Verse
Palm Muted			     x2
E|------------------------------------|
B|------------------------------------|
D|-5555555555555555-33333333----------|
G|-5555555555555555-33333333-33333333-|
A|-3333333333333333-11111111-33333333-|
E|---------------------------11111111-|
[ Tab from: http://www.guitartabs.cc/tabs/o/operation_ivy/knowledge_tab_ver_6.html ]
Chorus
				     x2
E|------------------------------------|
B|------------------------------------|
D|-5555555555555555-33333333----------|
G|-5555555555555555-33333333-33333333-|
A|-3333333333333333-11111111-33333333-|
E|---------------------------11111111-|
   All I know...           ...Nothing

Solo
				  x2
E|---------------------------------|
B|---------------------------------|
D|---------------------------------|
G|-3-2-0-----3-2-0-----0-1-1-1-----|
A|-------3-3-------3-3---------1---|
E|-------------------------------1-|


Bridge
Palm Muted where indicated	      x2
E|-------------------------------------|
B|-------------------------------------|
D|-5555555555555555--33333333----------|
G|-5555555555555555--33333333-33333333-|
A|-3333333333333333--11111111-33333333-|
E|----------------------------11111111-|
 PM~~~~~~~~~~~~~~~~   
   Whatcha gunna...            ...mind

Outro               x1
E|-------------------|
B|-------------------|
D|-5---5---5---5---5-|
G|-5---5---5---5---5-|
A|-3---3---3---3---3-|
E|-------------------|

ORDER:
Intro/Verse
Chorus
Intro/Verse
Chorus
Solo
Bridge
Chorus with Solo played over it
Intro/Verse
Chorus
Outro
Comments