Operation Ivy - Knowledge Chords & Tabs

 

Knowledge Chords & Tabs

Operation Ivy Chords & Tabs

Version: 5 Type: Tab 0 ratings
1 star 2 stars 3 stars 4 stars 5 stars
comments

Knowledge Tab

Green Day Knowledge
From the album 1039/smoothed out slappy hours
Track 14
Tabbed by Liam
Email: guitar_rocker_47@hotmail.com
Tuning Standard

loads of bands covered this song so it must kick ass
If you cant pick up the rhythm straight away stick to it and you'll pick it up.

Intro
E|--------------------------------------------------|
B|--------------------------------------------------|
G|--9---9-9---9-9---9-9----7-7-7-7------------------|
D|--9-9-9-9-9-9-9-9-9-9-9--7-7-7-7-x-7-7-7-7-7-7----|
A|--7-7-7-7-7-7-7-7-7-7-7--5-5-5-5-x-7-7-7-7-7-7----|
E|---------------------------------x-5-5-5-5-5-5----|
PM    *     *     *     *                           
                                                    
E|--------------------------------------------------|
B|--------------------------------------------------|
G|--9---9-9---9-9---9-9----7-7-7-7------------------|
D|--9-9-9-9-9-9-9-9-9-9-9--7-7-7-7-x-7--------------|
A|--7-7-7-7-7-7-7-7-7-7-7--5-5-5-5-x-7--------------|
E|---------------------------------x-5--------------|
PM    *     *     *     *

E|--------------------------------------------------|
B|--------------------------------------------------|
G|--9---9-9---9-9---9-9----7-7-7-7--7-7-7-7---------|
D|--9-9-9-9-9-9-9-9-9-9-9--7-7-7-7--7-7-7-7---------|
A|--7-7-7-7-7-7-7-7-7-7-7--5-5-5-5--5-5-5-5---------|
E|--------------------------------------------------|
PM    *     *     *     *
[ Tab from: http://www.guitartabs.cc/tabs/o/operation_ivy/knowledge_tab_ver_5.html ]
Main Riff
E|--------------------------------------------------|
B|--------------------------------------------------|
G|--9---9-9---9-9---9-9----7-7-7-7------------------|
D|--9-9-9-9-9-9-9-9-9-9-9--7-7-7-7-x-7-7-7-7-7-7----|
A|--7-7-7-7-7-7-7-7-7-7-7--5-5-5-5-x-7-7-7-7-7-7----|
E|---------------------------------x-5-5-5-5-5-5----|
PM    *     *     *     *                           

Outro (# means stop chord dead)
E|--------------------------------------------------|
B|--------------------------------------------------|
G|--9---9-9-----------------------------------------|
D|--9-9-9-9-9(piano bit)--(Drum bit)---7#----------|
A|--7-7-7-7-7---------------------------7#----------|
E|--------------------------------------5#----------|
PM    *     *  

Order

Intro
Main Riff x8
Solo (sorry cudnt work it out)
Main Riff x5
Outro

There you go, it sounds right any problems or requests of how you play green day songs
that sound's right leave a comment and please rate this, thanks good bye


Lyrics

Argghh

I know, things are getting tough 
When you can't get top off from the 
Bottom of the barrel

Wide open the road of my future
It's fucking, fucking narrow
All I know is that I don't know
All I know is that I don't nothing
All I know is that I don't know
All I know is that I don't nothing

Well get told to decide
Just like as if im not gonna change my mind
All I know is that I don't know
All I know is that I don't nothing
All I know is that I don't know
All I know is that I don't nothing

Watcha gonna do with yourself boy 
You better make up your mind
Watcha gonna do with yourself your
Running out of time

All I know is that I don't know
All I know is that I don't nothing
All I know is that I don't know
All I know is that I don't nothing

All I know is that I don't know
All I know is that I don't nothing
All I know is that I don't know
All I know is that I don't nothing, and that's fine
Comments