Operation Ivy - Knowledge Chords & Tabs

 

Knowledge Chords & Tabs

Operation Ivy Chords & Tabs

Version: 4 Type: Tab 0 ratings
1 star 2 stars 3 stars 4 stars 5 stars
comments

Knowledge Tab

OPERATION IVY
"KNOWLEDGE" SOLO
TABED BY OPIVBOY15 4/19/03


E-----------------------------------1-1-1-
A-------3-3-3-3-------3-3-3-3----1-1------
D-3-2-0---------3-2-0---------1-1---------
G-----------------------------------------
B-----------------------------------------
E-----------------------------------------
[ Tab from: http://www.guitartabs.cc/tabs/o/operation_ivy/knowledge_tab_ver_4.html ]
SECOND TIME

E--------------------------------3-3-3---
A------3-3-3-3-----3-3-3-3----1-1--------
D-3-2-0-------3-2-0--------1-1-----------
G----------------------------------------
B----------------------------------------
E----------------------------------------
"WHAT YOU GONNA DO WITH YOUR SELF BETTER MAKE UP YOUR MIND......"
Comments