Operation Ivy - Knowledge Chords & Tabs

 

Knowledge Chords & Tabs

Operation Ivy Chords & Tabs

Version: 2 Type: Bass Tab 0 ratings
1 star 2 stars 3 stars 4 stars 5 stars
comments

Knowledge Bass Tab

Operation Ivy
KNOWLEGE

Here it is.  You will have to listen to the song to find out where to 
play each part.


(Play Twice)
G:-----------------------------------------------------------------
D:------------------------------------------------0-1-2-3--1--0----
A:3-3-3-3-3-3-3-3-3-3-3-3-3-3-3-3-1-1-1-1-1-1-1-1----------------1-
E:-----------------------------------------------------------------

Verse:
G:----------------------------------------------------------------
D:----------------------------------------------------------------
A:3-3-3-3-3-3-3-3-3-3-3-3-3-3-3-3-1-1-1-1-1-1-1-1-----------------
E:------------------------------------------------1-1-1-1-1-1-1-1-
[ Tab from: http://www.guitartabs.cc/tabs/o/operation_ivy/knowledge_btab_ver_2.html ]
First Half of Guitar Solo:
G:-----------------------------------------------------------------
D:------------------------------------------------0-1-2-3--1--0----
A:3-3-3-3-3-3-3-3-3-3-3-3-3-3-3-3-1-1-1-1-1-1-1-1----------------1-
E:-----------------------------------------------------------------

Second Half of Guitar Solo
G:----------------------------------------------------------------
D:----------------------------------------------------------------
A:3-3-3-3-3-3-3-3-3-3-3-3-3-3-3-3-1-1-1-1-1-1-1-1-----0-1-2-2-3-3-
E:------------------------------------------------1-1-------------

"What you gonna........" (Play Twice)
G:-----------------------------------------------------
D:-----------------------------------------------------
A:-3---3-3----3---3-3--1-1-1-1-1-1-1-1-----0-1-2-2-3-3-
E:-------------------------------------1-1-------------


Transcribed by Albino
Comments