Operation Ivy - Jaded Chords & Tabs

 

Jaded Chords & Tabs

Operation Ivy Chords & Tabs

Version: 1 Type: Bass Tab 0 ratings
1 star 2 stars 3 stars 4 stars 5 stars
comments

Jaded Bass Tab

#----------------------------------PLEASE NOTE---------------------------------#
#This file is the author's own work and represents their interpretation of the #
#song. You may only use this file for private study, scholarship, or research. #
#------------------------------------------------------------------------------#

Song: Jaded
Artists: Operation Ivy

Intro
G---------------------------------------------|----------------------------------
D---------------------------------------------|-----------------------------3-2--
A--3-----------------3------------------------|--3-3-3-3-------------------------
E--------4-----3-----------4-----3------1-----|-----------4-4-4-4--3-3-3-3-------
[ Tab from: http://www.guitartabs.cc/tabs/o/operation_ivy/jaded_btab.html ]
G---------------------------------------------------------------------------
D-----------------------------3-2-------------------------------------------
A--3-3-3-3-------------------------3-3-3-3--6-6-6-6--5-5-5-5-------3-3-3-3--
E-----------4-4-4-4--3-3-3-3----------------------------------4-3-----------

G-------------------------
D--------------------3-2--
A-------------------------
E--4-4-4-4--3-3-3-3-------

Verse Part1
G----------------------------------------------------------------------
D----------------------------------------------------------------------
A--3-3-3-3-3-3-3-3-----------------------------------------------------
E-------------------4-4-4-4-4-4-4-4--3-3-3-3-3-3-3-3--1-1-1-1-1-1-1-1--

Verse Part2
G--------------------------------------------------------------------
D-----------------------------------------------------------1-1-1-1--
A----------0-0-0-0-1-1-1-1-3-3-3-3----------1-1-1-1-3-3-3-3----------
E--1-1-1-1--------------------------3-3-3-3--------------------------

Chorus
G----5h3-5h3-33--------------------
D----------------------------------
A--3-------------------------------
E----------------1-1-1-1--3-3-3-3--

e-mail me if you have any questions (mc_call@email.it)
Comments