Operation Ivy - Hedgecore Chords & Tabs

 

Hedgecore Chords & Tabs

Operation Ivy Chords & Tabs

Version: 1 Type: Bass Tab 0 ratings
1 star 2 stars 3 stars 4 stars 5 stars
comments

Hedgecore Bass Tab

#----------------------------------PLEASE NOTE---------------------------------#
#This file is the author's own work and represents their interpretation of the #
#song. You may only use this file for private study, scholarship, or research. #
#------------------------------------------------------------------------------#

Song:Hedgecore
Band:Operation Ivy
Album:69 Newport 7" and Unity:The Complete Collection CD


Most of it sounds alright except for the last part in the bridge.
If anybody knows it please correct it.



Intro/Chorus

G:-----------------------------------------|
D:-----------------------------------------|
A:---------------5-5-5-5-------------------|
E:---5-5-5-5-------------------------------|


Verse
[ Tab from: http://www.guitartabs.cc/tabs/o/operation_ivy/hedgecore_btab.html ]
G:---------------------------------------------------|
D:---------------4-5-6---6-5-4-----------------------|
A:-----4-5-6---5---------------6-5-4-----------------|
E:---5---------------------------------5-------------|



Bridge

G:----------------------------------------------------------------------------------------------|
D:-----------------4-5-5-7-----------------7-7-5-4----------------------------------------------|
A:-----4-5-5-7---5---------------4-5-5-7-----------------------7-5------------------------------| 
E:---5-------------------------5----------------------7-5-0-5-------7-5-------12/5---12/5-------| 


Transcribed by Ricky Angley         For Private use only.
             Punk
              Rules
                ok
Comments