Operation Ivy - Freeze Up Chords & Tabs

 

Freeze Up Chords & Tabs

Operation Ivy Chords & Tabs

Version: 3 Type: Bass Tab 0 ratings
1 star 2 stars 3 stars 4 stars 5 stars
comments

Freeze Up Bass Tab

Operation Ivy - Freeze Up

Tabbed by THeJimSTeR~

I couldn't find a complete tab
online, so heres one I made.

Remember to listen to the song
for the correct timing.


Intro x1

G--------
D--5-----
A-----5--
E--------

Verse x1

G-----------------------------------
D-------------------777777-5040-4540
A---777777----7-77-5----------------
E-5-------5-8-----------------------

G-----------------------------------
D-------------------777777--5-4-----
A---777777----7-77-5----------------
E-5-------5-8----------------------- 

G-----------------------------------
D-------------------777777-5040-4540
A---777777----7-77-5----------------
E-5-------5-8-----------------------
[ Tab from: http://www.guitartabs.cc/tabs/o/operation_ivy/freeze_up_btab_ver_3.html ]
G-----------------------------------
D---------------------------5-------
A---777777----7-77-5555555-----5----
E-5-------5-8-----------------------

"It's 1989..." part 

G----------------------------------
D--------------------2----4-74-----
A----------------3-33-3--5-5--5----
E-5-585--333-2-0------------------- x2

Chorus

G----------7-6-5-4- 
D------------------ 
A---------5-4-3-2-- 
E-5-58-58---------- x4

Guitar part

G----------------------------------- 
D-------------------252---47545-----
A-----3-----------33----5-----------
E-5-5---5-333-2-0-------------------

G----------------------------------- 
D-----235--5-3-2-0----1-345---------
A-5-5---------------3-------3-3-5---
E----------------------------------5

"One political song" part 

G------------
D------------
A--5555------
E-------5---- x2

G------------
D------------
A--5555------
E-------5-7--

G------------
D------------
A--5-5-------
E------575-5-

Chorus x8

There's a freeze up comming.
Comments