Operation Ivy - Bombshell Chords & Tabs

 

Bombshell Chords & Tabs

Operation Ivy Chords & Tabs

Version: 3 Type: Bass Tab 0 ratings
1 star 2 stars 3 stars 4 stars 5 stars
comments

Bombshell Bass Tab

Operation Ivy
Bombshell
Bassist: Max Freedman
Tabbed by: Jason Beran (I don't remember making this screen name)

Intro:
---------------------------------------------|
---------------------------------------------|
-5-------0-2-3-4-----5--------0-2-3-4--------|
---3-5-----------------3-5-------------------|  x 1

First Verse:
-------------------------------------|
--------------------------4-5-4------|
-5-4-2---------4------4-7-------7-4--|
-------5-3-2-0------5----------------|
-------------------------------------|
--------------------7-7-5-5-4-4------|
-5-4-2---------4----------------7-7--|
-------5-3-2-0-----------------------|    whole thing x 2

Main Chorus:
--------------------------------------|
-----4-5-7-7-5-4------4-5-7-7-5-4-----|
-5-5--------------5-5-----------------|
--------------------------------------|
[ Tab from: http://www.guitartabs.cc/tabs/o/operation_ivy/bombshell_btab_ver_3.html ]
--------------------------------------|
-----4-5-7-7-5-4------4-5-7-7-5-4-----|
-5-5--------------5-5-----------------|
--------------------------------------|   whole thing x 1

Second Verse:
-------------------------------------|
--------------------------4-5-4------|
-5-4-2---------4------4-7-------7-4--|
-------5-3-2-0------5----------------|


-------------------------------------|
--------------------7-7-5-5-4-4------|
-5-4-2---------4----------------7-7--|
-------5-3-2-0-----------------------|   whole thing x 2

Last Chorus:
-------------------------------------|
-------------------------------------|
-5-5-5-5-----------------------------|
---------3-3-3-3-5-5-5-5-5-5-5-5-----|  x 4

Outro:
-----------------|
-----4-5-7-------|
-5-5---------5---|
-----------------|   x 1


Play it in the order I tabbed it. It's really fast and takes awhile to learn. Just stick 
it, it's a fun song to play. If you take this, at least give me some credit, it took me 
to get it all tabbed.
Jason.
Comments