Operation Ivy - Bombshell Chords & Tabs

 

Bombshell Chords & Tabs

Operation Ivy Chords & Tabs

Version: 1 Type: Bass Tab 0 ratings
1 star 2 stars 3 stars 4 stars 5 stars
comments

Bombshell Bass Tab

Operation Ivy
Bombshell
tabbed by |GNORANTE :) :======D
vandalo@freemail.it
if u like this tab u can find me on irc:(irc.tin.it) #punkitalia,#punkitalia2


1)Intro=X2
G:---------------|
D:---------------|
A:-5-----0-2-3-4-|
E:---3-5---------|
[ Tab from: http://www.guitartabs.cc/tabs/o/operation_ivy/bombshell_btab.html ]
2)Verse=X2
G:-------------------------------------------------------|
D:---------------------7-5-4-----------------77-55-44----|
A:-55555--------00-2-4-------7---55555----------------77-|
E:-------33333-------------------------33333-------------|

3)Chorus=X3
G:------------------|
D:----4-5-7-7-5-4---|
A:-55-------------7-|
E:------------------|

4)Verse=X2
5)Chorus=X3
6)Verse=X2

7)Verse2=X4               Ending=X1 
G:------------------------|------------------|
D:------------------------|----4-5-7-7-5-4---|
A:-555555-----------------|-55-------------5-|
E:--------333333-55555555-|------------------|

Comments