Open Hand - Time To Talk Chords & Tabs

 

Time To Talk Chords & Tabs

Open Hand Chords & Tabs

Version: 1 Type: Tab 0 ratings
1 star 2 stars 3 stars 4 stars 5 stars
comments

Time To Talk Tab

Open Hand - Time to Talk

Intro:

Guitar 1
e|----------------------------------|----------------------------------|
b|----------0---------------0-------|---------0----------------0-------|
g|------4-----4---4-----4-----4---4-|-----4-----4---4------4-----4---4-|
d|----6---6-----6-----6---6-----6---|---6---6-----6------6---6-----6---|
a|--4---------------4---------------|-0----------------0---------------|
e|----------------------------------|----------------------------------|

e|----------------------------------|----------------------------------|
b|----------0---------------0-------|---------0---------------0--------|
g|------4-----4---4-----4-----4---4-|-----4-----4---4-----4-----4---4--|
d|----6---6-----6-----6---6-----6---|---6---6-----6-----6---6-----6----|
a|--2---------------2---------------|-0---------------0----------------|
e|----------------------------------|----------------------------------|

Guitar 2                                                     
e|----------------------------------|----------------------------------|
b|--5-----5-----5-----5-----5-------|-5-----5-----5-----5-----5--------|
g|----4-----4-----4-----4-----4---4-|---4-----4-----4-----4-----4---4--|
d|------2-----2-----2-----2-----2---|-----2-----2-----2-----2-----2----|
a|----------------------------------|----------------------------------|
e|----------------------------------|----------------------------------|

e|----------------------------------|----------------------------------|
b|--4-----4-----4-----4-----4-------|-5-----5-----5------5----5--------|
g|----4-----4-----4-----4-----4---4-|---4-----4-----4------4----4---4--|
d|------2-----2-----2-----2-----2---|----2-----2------2-----2-----2----|
a|----------------------------------|----------------------------------|
e|----------------------------------|----------------------------------|



e|-------------------------|--------------------------0---------|
b|-------------------------|---------0--------------------------|
g|-------------------------|-----2-----2---2------2------2---2--|
d|-----6----2-------6---6--|---2---2-----2------2---2------2----|
a|-----4----0-------4---4--|-0----------------0-----------------|
e|--0-----------0----------|------------------------------------|




Guitar 1                     |_1._                           |_2._
e|---------------------------|-------------------------------|---------------------------------|
b|---------------------------|-------------------------------|-----------------------.---------|
g|--------6-------------6----|----------6------------6-------|---------6-------------6---------|
d|----6------6------6------6-|-----6------6------6-----6---6-|----6------6------6--------------|
a|--4---4---------4---4------|---0---0---------0---0-----0---|--0---0---------0---0------------|
e|---------------------------|-------------------------------|---------------------------------|

Guitar 2
e|-----------------------------------|-----------------------------------|
b|-----------------------------------|-----------------------------------|
g|-----13----14-11------13----14-11--|-----13----14-11------13----14-11--|
d|--11----11---------11----11--------|--11----11---------11----11--------|
a|-----------------------------------|-----------------------------------|
e|-----------------------------------|-----------------------------------|

[ Tab from: http://www.guitartabs.cc/tabs/o/open_hand/time_to_talk_tab.html ]
Guitar 1
e|----------------------------------|----------------------------------|
b|----------0---------------0-------|---------0----------------0-------|
g|------4-----4---4-----4-----4---4-|-----4-----4---4------4-----4---4-|
d|----6---6-----6-----6---6-----6---|---6---6-----6------6---6-----6---|
a|--4---------------4---------------|-0----------------0---------------|
e|----------------------------------|----------------------------------|

e|----------------------------------|----------------------------------|
b|----------0---------------0-------|---------0---------------0--------|
g|------4-----4---4-----4-----4---4-|-----4-----4---4-----4-----4---4--|
d|----6---6-----6-----6---6-----6---|---6---6-----6-----6---6-----6----|
a|--2---------------2---------------|-0---------------0----------------|
e|----------------------------------|----------------------------------|


Guitar 2
e|-----------------------------------|-----------------------------------|
b|-----------------------------------|-----------------------------------|
g|-----13----14-11------13----14-11--|-----13----14-11------13----14-11--|
d|--11----11---------11----11--------|--11----11---------11----11--------|
a|-----------------------------------|-----------------------------------|
e|-----------------------------------|-----------------------------------|





@1:42
e|---0---------0---------0---------0----|
b|---0---------0---------0---------0----|
g|---6---------2---------4---------4----|
d|---6---------2---------4---------4----|
a|---4---------0---------2---------2----|
e|--------------------------------------|



@2:03
e|-------------------------|--------------------------0---------|
b|-------------------------|---------0--------------------------|
g|-------------------------|-----2-----2---2------2------2---2--|
d|-----6----2-------6---6--|---2---2-----2------2---2------2----|
a|-----4----0-------4---4--|-0----------------0-----------------|
e|--0-----------0----------|------------------------------------|

UPDATED:
The Ending ->

For Lael Evans!

Guitar 1
  2:22	      2:25       
e------------|-------------------------------------------
b------0-----|--------12---10---9--10--9h10p9--
g--------2---|-------------------------------------------
d----2-----2-|-------------------------------------------
a--0---------|-------------------------------------------
e------------|-------------------------------------------

Guitar 1 kind of goes off on its own tangent. But thats the beginning





Guitar 2
e|---------------------------------------------------0-----0---
b|-----------------------------------------------------0-----0-
g|-------9------9--8h-9--8h-9--8-----------9-------------------
d|-------9------9--9-----9-----9-----------9------9------9-----
a|-------7------7--7--7--7--7--7-----------7----7--------------
e|-0--0------------------------------0--0----------------------
 |
e|---------------------------------------------------------------------0-
b|---------------------------------------------------------------------0-
g|-------9-------9-/-11-11-x-11-/-13-13-13-13-13-/-14-14-/-16--16--16--9-
d|-------9---x-x---------------------------------------------------------   x2
a|-------7---x-x-7-/-9---9-x--9-/-11-11-11-11-11-/-12-12-/-14--14--14--7- 
e|-0--0----------0-----------------------------------------------------0-



e|-------0------0-----0-----0--0-------------------------0--
b|-------0------0-----0-----0--0-------------------------0--
g|-------9------9--8h-9--8h-9--8----14-14-14-/-16-16-16--9--
d|-------9------9--9--9--9--9--9----------------------------
a|-------7------7--7--7--7--7--7----12-12-12-/-14-14-14--7--
e|-0--0--------------------------------------------------0--
 |
e|-------0---------------------------------0-0-0-
b|-------0---------------------------------0-0-0-
g|-------9------9--8h-9--8h-9--8-----------9-9-9-
d|-------9------9--9-----9-----9-----------9-9-9-
a|-------7------7--7--7--7--7--7-----------7-7-7-            x 2
e|-0--0------------------------------0--0--0-0-0-

Comments