Oomph - Augen Auf Chords & Tabs

 

Augen Auf Chords & Tabs

Oomph Chords & Tabs

Version: 1 Type: Bass Tab 0 ratings
1 star 2 stars 3 stars 4 stars 5 stars
comments

Augen Auf Bass Tab

Band: Oomph!
Song: Augen Auf
Album: Wahrheit oder Pflicht
Website: www.oomph.de

Info: They are a german band and I saw this song on a cable music channel.
I then bought the album and tabbed out the song.

Tuning: Standard

Tabbed by: Robert Chittock on 05/04/04 (the_despair_fraction@hotmail.com)


INTRO:(0:05)                                         (0:16)     
G|----------------|----------------|----------------|----------------|
D|----------------|----------------|----------------|----------------|
A|----------------|----------------|----------------|----------------|
E|----------------|----------------|----------------|-5-5-5-5-5-5-4-4|


VERSE: (0:20)
G|----------------|----------------|----------------|----------------|
D|----------------|----------------|----------------|----------------|
A|-4-4-4-4-4-4-6-7|----------------|-4-4-4-4-4-4-6-7|----------------|
E|----------------|-5-5-5-5-5-5-4-4|----------------|-5-5-5-5-5-5-4-4|

(0:34)
G|----------------|----------------|----------------|----------------|
D|----------------|----------------|----------------|----------------|
A|-4-4-4-4-4-4-6-7|----------------|-4-4-4-4-4-4-6-7|----------------|
E|----------------|-5-5-5-5-5-5-4-4|----------------|-5-5-5-5-5-5-4-4|


G|----------------|----------------|
D|----------------|----------------|
A|-4-4-4-4-4-4-6-7|----------------|
E|----------------|-5-5-5-5-5-5-4-4|


REST: (0:56)


CHORUS: (1:07)
G|-----------------------|-----------------------|
D|-----------------------|-----------------------|
A|-4-4-----7-7-----------|-4-4-----7-7-----------|
E|-----5-5-----7-7-5-7-5-|-----5-5-----7-7-5-7-5-|

G|-----------------------|-----------------------|
D|-----------------------|-----------------------|
A|-4-4-----7-7-----------|-4-4-----7-7-----------|
E|-----5-5-----7-7-5-7-5-|-----5-5-----7-7-5-7-5-|

[ Tab from: http://www.guitartabs.cc/tabs/o/oomph/augen_auf_btab.html ]
VERSE: (1:22)
G|----------------|----------------|----------------|----------------|
D|----------------|----------------|----------------|----------------|
A|-4-4-4-4-4-4-6-7|----------------|-4-4-4-4-4-4-6-7|----------------|
E|----------------|-5-5-5-5-5-5-4-4|----------------|-5-5-5-5-5-5-4-4|

G|----------------|----------------|
D|----------------|----------------|
A|-4-4-4-4-4-4-6-7|----------------|
E|----------------|-5-5-5-5-5-5-4-4|


REST: (1:44)


CHORUS: (1:55)
G|-----------------------|-----------------------|
D|-----------------------|-----------------------|
A|-4-4-----7-7-----------|-4-4-----7-7-----------|
E|-----5-5-----7-7-5-7-5-|-----5-5-----7-7-5-7-5-|

G|-----------------------|-----------------------|
D|-----------------------|-----------------------|
A|-4-4-----7-7-----------|-4-4-----7-7-----------|
E|-----5-5-----7-7-5-7-5-|-----5-5-----7-7-5-7-5-|

(2:10)
G|-----------------------|-----------------------|
D|-----------------------|-----------------------|
A|-4-4-----7-7-----------|-4-4-----7-7-----------|
E|-----5-5-----7-7-5-7-5-|-----5-5-----7-7-5-7-5-|

G|-----------------------|-----------------------|
D|-----------------------|-----------------------|
A|-4-4-----7-7-----------|-4-4-----7-7-----------|
E|-----5-5-----7-7-5-7-5-|-----5-5-----7-7-5-7-5-|


REST: (2:25)


CHORUS: (2:42)
G|-----------------------|-----------------------|
D|-----------------------|-----------------------|
A|-4-4-----7-7-----------|-4-4-----7-7-----------|
E|-----5-5-----7-7-5-7-5-|-----5-5-----7-7-5-7-5-|

G|-----------------------|-----------------------|
D|-----------------------|-----------------------|
A|-4-4-----7-7-----------|-4-4-----7-7-----------|
E|-----5-5-----7-7-5-7-5-|-----5-5-----7-7-5-7-5-|


(2:57)
G|-----------------------|-----------------------|
D|-----------------------|-----------------------|
A|-4-4-----7-7-----------|-4-4-----7-7-----------|
E|-----5-5-----7-7-5-7-5-|-----5-5-----7-7-5-7-5-|

G|-----------------------|-----------------------|
D|-----------------------|-----------------------|
A|-4-4-----7-7-----------|-4-4-----7-7-----------|
E|-----5-5-----7-7-5-7-5-|-----5-5-----7-7-5-7-5-|


REST: (3:12) (END)
Comments