Onion Head - Car Thief Chords & Tabs

 

Car Thief Chords & Tabs

Onion Head Chords & Tabs

Version: 1 Type: Bass Tab 0 ratings
1 star 2 stars 3 stars 4 stars 5 stars
comments

Car Thief Bass Tab

car thief
[ Tab from: http://www.guitartabs.cc/tabs/o/onion_head/car_thief_btab.html ]
intro and verse
-------------------------------------------------
-------------------------------------------------
--------------------------2-2-2-2-2---6-6-6-6-6--
--4-4-4-4-4---0-0-0-0-0--------------------------

chorus
---------------------------------------
---------------------------------------
--2-2-2-2------------------------------
------------2-2-2-2---0-0-0-0-0-0-0-0--
Comments