Onestringshort - Greengorila Chords & Tabs

 

Greengorila Chords & Tabs

Onestringshort Chords & Tabs

Version: 1 Type: Tab 0 ratings
1 star 2 stars 3 stars 4 stars 5 stars
comments

Greengorila Tab

intro
E---------7(3*)--9(3*)---7(3*)-------------------------
A--7(3*)--9------11------5-----------------------------
D--9---------------------------------------------------
G------------------------------------------------------
B------------------------------------------------------
E------------------------------------------------------
[ Tab from: http://www.guitartabs.cc/tabs/o/onestringshort/greengorila_tab.html ]
verse
E---------7(7*)---9-(7*)--7(7*)------------------------
A--7(7*)--9-------11------5----------------------------
D--9---------------------------------------------------
G------------------------------------------------------
B------------------------------------------------------
E------------------------------------------------------


E-555--999--333--777--555--999--333--777---------------
A------------------------------------------------------
D------------------------------------------------------

repeat 1 time
E-555--999--333--777-----------------------------------
A-777--111--555--999-----------------------------------
D-777--111--555--999-----------------------------------

back to vers 2 times
Comments