Onestringshort - Greengorila Part Chords & Tabs

 

Greengorila Part Chords & Tabs

Onestringshort Chords & Tabs

Version: 1 Type: Tab 0 ratings
1 star 2 stars 3 stars 4 stars 5 stars
comments

Greengorila Part Tab

repeat 1 time
E---------------5-------1----------
A-3------1-------7-7-----3-3-------
D--5-5----3-3-----7-------3--------
G---5------3-----------------------
B----------------------------------
E----------------------------------

back to intro 2 times

repaet 1 time
E--------------3-----2-------------
A-2------3------5-5---4-4----------
D--4-4----5-5----5-----4-----------
G---4------5-----------------------
B----------------------------------
E----------------------------------
[ Tab from: http://www.guitartabs.cc/tabs/o/onestringshort/greengorila_part_tab.html ]
all chords 3 times, repeat 2 times
E---------3--2---------------------
A-2--3----5--4---------------------
D-4--5----5--4---------------------
G-4--5-----------------------------
B----------------------------------
E----------------------------------

all chords 7 times, repeat 3 times, on third fade out
E---------3--2-----------------------
A-2--3----5--4-----------------------
D-4--5----5--4-----------------------
G-4--5-----------------------------
B----------------------------------
E----------------------------------
Comments