Onesidezero - New World Order Chords & Tabs

 

New World Order Chords & Tabs

Onesidezero Chords & Tabs

Version: 1 Type: Tab 0 ratings
1 star 2 stars 3 stars 4 stars 5 stars
comments

New World Order Tab

New World Order
Onesidezero

Tabbed by: Jaguar (Ben Stone)
Email:     jaguar179@home.com
• I would suggest that you listen to the song while trying to play this.



- Key
•s - Slide
•h - hammer on
•p - pick off

************************************************************************

• Tuning: Drop D

Intro: Played 4 Times

e|--------------------------------|
b|--------------------------------|
g|--------------------------------|
d|--------------------------------|
a|--5--5--5--8--5--4--4--4--14s5--|
D|--5--5--5--8--5--4--4--4--14s5--|


Verse: Played 4 Times
•Note: Played Muted

e|--------------------------------------------------------------|
b|--------------------------------------------------------------|
g|--------------------------------------------------------------|
d|--------------------------------------------------------------|
a|--5--5--5--8--5--4--4--4--14s5--5--5--5--8--5--4--4--4--10s5--|
D|--5--5--5--8--5--4--4--4--14s5--5--5--5--8--5--4--4--4--10s5--|


Verse: Played 4 Times

e|--------------------------------|
b|--------------------------------|
g|--------------------------------|
d|--------------------------------|
a|--5--5--5--8--5--4--4--4--14s5--|
D|--5--5--5--8--5--4--4--4--14s5--|


Chorus: Played 2 Times
•Note: Played VERY Fast

e|--------------------------------|
b|--------------------------------|
g|--------------------------------|
d|--10--12--8--7--10--6--12--7----|
a|--8---10--6--5--8---8--10--5----|
D|--------------------------------|


Post Chorus: Played 1 Time

e|------|
b|------|
g|------|
d|------|
a|--11--|
D|--11--|


Verse: Played 4 Times

e|--------------------------------|
b|--------------------------------|
g|--------------------------------|
d|--------------------------------|
a|--5--5--5--8--5--4--4--4--14s5--|
D|--5--5--5--8--5--4--4--4--14s5--|


Verse: Played 1 Time
•Note: Played Muted

e|--------------------------------------------------------------|
b|--------------------------------------------------------------|
g|--------------------------------------------------------------|
d|--------------------------------------------------------------|
a|--5--5--5--8--5--4--4--4--14s5--5--5--5--8--5--4--4--4--10s5--|
D|--5--5--5--8--5--4--4--4--14s5--5--5--5--8--5--4--4--4--10s5--|


Verse: Played 2 Times

e|--------------------------------|
b|--------------------------------|
g|--------------------------------|
d|--------------------------------|
a|--5--5--5--8--5--4--4--4--14s5--|
D|--5--5--5--8--5--4--4--4--14s5--|


Chorus: Played 2 Times
•Note: Played VERY Fast

e|--------------------------------|
b|--------------------------------|
g|--------------------------------|
d|--10--12--8--7--10--6--12--7----|
a|--8---10--6--5--8---8--10--5----|
D|--------------------------------|


Solo: Part 1 - Play 1 Time and Continue to Part 2
•Note: Play all notes trilled (move finger left and right very fast on that fret)

e|-------------------------------------------------------------------------------|
b|-------------------------------------------------------------------------------|
g|-------------------------------------------------------------------------------|
d|--10--------------10--------------10s12--12--12s13--13--13s10--10--10--10--9---|
a|------8--8--8--8------7--7--7--7-----------------------------------------------|
D|-------------------------------------------------------------------------------|


Solo: Part 2 - Play 1 Time and Continue to Part 3
•Note: Play all notes trilled (move finger left and right very fast on that fret)

e|--------------------------------------------------------------------------------------|
b|--------------------------------------------------------------------------------------|
g|--------------------------9-----------------------------------------------------------|
d|--10--------------10--10-----------------10s12--12--12s13--13--13s10--10--10--10--9---|
a|------8--8--8--8-------------7--7--7--7---------------------------------------- -
D|--------------------------------------------------------------------------------------|

[ Tab from: http://www.guitartabs.cc/tabs/o/onesidezero/new_world_order_tab.html ]
Solo: Part 3 - Play 1 Time and Continue to Part 4
•Note: Play all notes trilled (move finger left and right very fast on that fret)

e|--------------------------------------------------------------------------------------|
b|--------------------------------------------------------------------------------------|
g|--7--7--7--7--6--6--6--6--6--6--7--7s9--10--10--10--10--10--10--9h10p9--7h9p7--6h7p6--|
d|--------------------------------------------------------------------------------------|
a|--------------------------------------------------------------------------------------|
D|--------------------------------------------------------------------------------------|


Solo: Part 4 - Play 1 Time and Continue to After Solo
•Note: Play all notes trilled (move finger left and right very fast on that fret)

e|-------------------------------------------------------------------|
b|-------------------------------------------------------------------|
g|--7--7--7--7--6--6--6--6--6--6--7--7s9--10--10--10--10--10--10--9--|
d|-------------------------------------------------------------------|
a|-------------------------------------------------------------------|
D|-------------------------------------------------------------------|


After Solo: Part 1 - Played 3 Times
•Note: Continue Directly to After Solo Part 2

e|-----------------------|
b|-----------------------|
g|-----------------------|
d|--12--11--10--9--8--7--|
a|--10--9---8---7--6--5--|
D|-----------------------|


After Solo: Part 2 - Played 1 Time
•Note: Continue Directly to After Solo Part 3

e|--------------------------|
b|--------------------------|
g|--------------------------|
d|--12--12--13--15--16--17--|
a|--10--14--15--17--18--19--|
D|--------------------------|


After Solo: Part 3 - Played 1 Time
•Note: Played with "Cheap TV" Distortion

e|--------------------------------|
b|--------------------------------|
g|--------------------------------|
d|--------------------------------|
a|--5--5--5--8--5--4--4--4--14s5--|
D|--5--5--5--8--5--4--4--4--14s5--|


Chorus: Played 2 Times
•Note: Played VERY Fast

e|--------------------------------|
b|--------------------------------|
g|--------------------------------|
d|--10--12--8--7--10--6--12--7----|
a|--8---10--6--5--8---8--10--5----|
D|--------------------------------|


Post Chorus: Played 1 Time

e|------|
b|------|
g|------|
d|------|
a|--11--|
D|--11--|


Verse: Played 3 Times

e|--------------------------------|
b|--------------------------------|
g|--------------------------------|
d|--------------------------------|
a|--5--5--5--8--5--4--4--4--14s5--|
D|--5--5--5--8--5--4--4--4--14s5--|


Verse: Played 1 Time

e|--------------------------|
b|--------------------------|
g|--------------------------|
d|--------------------------|
a|--5--5--5--8--5--4--4--4--|
D|--5--5--5--8--5--4--4--4--|




Lyrics - Taken from Onesidezero.net

I have seen it this time, but I am older now
All that you could ever
But you will not, you will not come down
Offer me solutions, but I am sober now
All that you could ever
But you will not, you will not come down
Offer me new proposition, here's something you rely
You will take position
But you will not, you will not survive
 
Cause everything is different now
I know it seemed so impossible to know
Did you ever think to ask me how or why
 
Offer me new institutions
Some place I could clear up my mind
Open up and swallow this motherfucker
You will not, you will not survive

I have seen the difference, but I am older now
You will take what you want from me
You will never win
 
Cause everything is different now
Though it seemed so impossible to know
Did you ever think to ask me how or why

I have seen it now
Never will come down
Is wish I could hold the photograph
Yet the scene is old
I've never felt this cold
I wish I could hold...from...me...NOW
 
Cause everything is different now
Though it seems so impossible to know
You never think to ask me how or why

Offer me new institutions
Here's something that you can rely
Well you will take position
You will not, you will not survive

Comments