Onesidezero - Instead Laugh Chords & Tabs

 

Instead Laugh Chords & Tabs

Onesidezero Chords & Tabs

Version: 1 Type: Tab 0 ratings
1 star 2 stars 3 stars 4 stars 5 stars
comments

Instead Laugh Tab

	



Mxtabs / Guitar Tabs / O / Onesidezero / Instead Laugh   	       Rating :  [1 Vote]       
Printable Version | Read Corrections | Correct This Tab 	Rate This Tab:  	   


 Buy The Official Sheet Music	

Music X Tabs [http://www.mxtabs.net]
Band: Onesidezero
Song: Instead Laugh
Tabbed By: StainD234 & kdix

In the opening riff, Brett plays chords over what Levon is playing.  If you are by 
yourself you can just use pick scratches.  This tab is just bits and pieces that I 
knew but I will try to tab out the rest of the stuff when I can.  Just rate me on 
how these parts are tabbed.

Tuning: Drop D for all of their songs

Levon (Opening Riff) Listen to the song to make sure that the scratches are in  the
right place.
E---------------------------------------------------------
B---------------------------------------------------------
G-----------------------------------------------------------
D---0-xx-3-xx-3-xx-2-xx-0-xx-3-xx-3-xx-2-xx-0-------------
A---------------------------------------------------------
D---------------------------------------------------------

E-----------------------------------------------------
B-------------------------------------------------------
G--------------------2h3-----------------------------
D--xx-3-xx-3-xxxxxx-------xxxx-3-xx-3-xxxxxx---
A-----------------------------------------------------
D-----------------------------------------------------
[ Tab from: http://www.guitartabs.cc/tabs/o/onesidezero/instead_laugh_tab.html ]
Riff 2
E------------------------------------------------------------
B------------------------------------------------------------
G--7-xx-7/9-999-10--x—-x-10/--12-12/14-----------------------  
D--x-xx-x-x-xxx--x--x--x--x---x---x--x-----------------------
A--5-xx-5/7-777/-8--x--x--8/--10-10/12-----------------------
D------------------------------------------------------------

Riff 3
E-------------------------------------------------------------------------
B-------------------------------------------------------------------------
G---------------------------------7-xx-7/9-999-10--x--x-10/--12-12/14-----
D--0--10-10-10--6-6-6/7-7-7-------x-xx-x-x-xxx--x--x--x--x---x--x--x------
A--0--10-10-10--6-6-6/7-7-7-------5-xx-5/7-777/-8--x--x--8/--10-10/12-----
D--0--10-10-10--6-6-6/7-7-7-------------------------------------------

Solo (some parts are missing I will try to tab them out later.)
E----------------------------------------------------------------
B----------------------------------------------------------------
G----------------------------------------------------------------
D--8-8-8-8h10h12-7-7--77h8p7--5h7p5—3h5p3-2--3--2-3-2------------
A------------------------------------------------------3---------
D----------------------------------------------------------------


E-------------------------------------------------
B-------------------------------------------------
G-------------------------------------------------
D--15--14-14--12-12--12/17--15-15--14-14-12p11h12—
A-------------------------------------------------
D-------------------------------------------------

E---------------------------------------------
B---------------------------------------------
G---------------------------------------------
D--15--14-14--12-12—11h12p11--12—14\----------
A---------------------------------------------
D---------------------------------------------


Members who rated this tab : 
hkyhed (3), 
Corrections on this Tab : the guy before me had this on the G string intro, its right on the D strng.
                              Thanks, mxtabs 
  Click Here to View the Corrections
Comments