Onesidezero - Holding Cell Chords & Tabs

 

Holding Cell Chords & Tabs

Onesidezero Chords & Tabs

Version: 2 Type: Tab 0 ratings
1 star 2 stars 3 stars 4 stars 5 stars
comments

Holding Cell Tab

   
Artist- Onesidezero
Song- Holding Cell
Tabber- Iconoclast

Verse- Guitar 1 (all palm muted)
e|----------------------------------------------------|
b|----------------------------------------------------|
g|-3-3-3-3-3-3----------------------------------------|
d|-------------3-3-3-3-3-3-3-2-2-2-2-2-2-2------------|
a|----------------------------------------3-3-3-3-3-3-|
D|----------------------------------------------------|

Verse- Guitar 2 
e|-10-------10-------10-------------------------|
b|----11-10----11-10----11-10-11-11-10----------|
g|----------------------------------------------|
d|----------------------------------------------|
a|----------------------------------------------|
D|----------------------------------------------|

Verse- Guitar 3
e|--------------------------------------------------------|
b|--------------------------------------------------------|
g|--------------------------------------------------------|
d|-----7-7-7-7-7-8----------------7-----------------------|
a|---8-------------10-10-10-10-10---8-8-8-8-8-7-7-7-5-5-5-|
D|-0------------------------------------------------------|

e|---------------------------------|
b|---------------------------------|
g|---------------------------------|
d|---------------------------------|
a|-4-4-4---------------------------|
D|---------------------------------|
[ Tab from: http://www.guitartabs.cc/tabs/o/onesidezero/holding_cell_tab_ver_2.html ]
Chorus
e|---------------------------------|
b|---------------------------------|
g|---------------------------------|
d|-0-0-0-0-3-3-3-3-2-2-2-2-1-1-1-1-|
a|-0-0-0-0-3-3-3-3-2-2-2-2-1-1-1-1-|
d|-0-0-0-0-3-3-3-3-2-2-2-2-1-1-1-1-|

Chorus- 2nd guitar (comes in around the middle of the chorus, and you repeat it 
numerous times)

e|---------------------------------|
b|---------------------------------|
g|---------------------------------|
d|---------------------------------|
a|-s5------------------------------|
D|----0----------------------------|

After the chorus, the Verse- Guitar 3 comes in along with this...
e|-------------------------------------------------------|
b|-------------------------------------------------------|
g|-------------------------------------------------------|
d|---7-10-10-10-10-10-12-8-8-8-8-8-10-7-7-7-7-7----------|
a|----------------------------------------------10-10-10-|
D|-0-----------------------------------------------------|

e|---------------------------------|
b|---------------------------------|
g|---------------------------------|
d|---------------------------------|
a|-8-8-8-7-7-7---------------------|
D|---------------------------------|

Bridge (played along with the 1st and 2nd verse parts)
e|---------------------------------|
b|---------------------------------|
g|-9-------------------------------|
d|-x(repeat as needed)-12b12-------|
a|-7-------------------------------|
D|---------------------------------|

After last verse, play...
e|-----------------|--------------------|
b|-----------------|--------------------|
g|-14b-14-14b-12---|-14b-14b-12-9-9-9-9-|
d|--x------x---x---|--x---x---x-x-x-x-x-|
a|-12b-12-12b-10---|-12b-12b-10-7-7-7-7-|
D|-----------------|--------------------|

Thats about it. 
Comments