Onesidezero - Eight Chords & Tabs

 

Eight Chords & Tabs

Onesidezero Chords & Tabs

Version: 1 Type: Tab 0 ratings
1 star 2 stars 3 stars 4 stars 5 stars
comments

Eight Tab

Onesidezero - Eight
 tabbed by Jimbo
===================

     Intro
E|----------------------------------------------------------------|
B|----------------------------------------------------------------|
G|----------------------------------------------------------------|
D|--------222-----------------------------------------------------|
A|--------------000----44-55---XX---------------------------------|
D|---444----------------------------------------------------------|


[ Tab from: http://www.guitartabs.cc/tabs/o/onesidezero/eight_tab.html ]
     Interlude  (listen to song)
E|----------------------------------------------------------------|
B|----------------------------------------------------------------|
G|---------2------------------------------------------------------|
D|---4-----2----2-------------------------------------------------|
A|---4-----0----2-------------------------------------------------|
D|---4----------2-------------------------------------------------|
   |-=-=-=-=-=-=-=|
  (Palm Mute about 6 times each)



there isnt much more to this song, if you figure out more - email me
jimbohsp@optonline.net
Comments