Onesidezero - Awake Chords & Tabs

 

Awake Chords & Tabs

Onesidezero Chords & Tabs

Version: 1 Type: Tab 0 ratings
1 star 2 stars 3 stars 4 stars 5 stars
comments

Awake Tab

Artist- Onesidezero
Song- Awake
Tabber- Iconoclast

Verse
e|---------------------------------|
b|---------------------------------|
g|---------------------------------|
d|-2h4-4-4-------------------------|
a|---------4---4b------------------|
D|-----------4---------------------|

Prechorus- Guitar 1
e|---------------------------------|
b|---7-----7-----10------12--------|
g|-6---6-7---7-9----9-11----11-----|
d|---------------------------------|
a|---------------------------------|
D|---------------------------------|
[ Tab from: http://www.guitartabs.cc/tabs/o/onesidezero/awake_tab.html ]
Prechorus- Guitar 2 (repeat each single note 8 times)
e|---------------------------------|
b|---------------------------------|
g|-6-7-6-7-6-7-4-7-----------------|
d|---------------------------------|
a|---------------------------------|
D|---------------------------------|
   pm-------------

Chorus                             
e|---------------------------------|
b|---------------------------------|
g|-------6-------------------------|
d|-4-4-4-x-0-0-7-7-7-2-2-----------|
a|-4-4-4-4-0-0-7-7-7-2-2-----------|
D|-4-4-4---0-0-7-7-7-2-2-----------|

After playing the above a few times play this
e|---------------------------------------------------|
b|---------------------------------------------------|
g|-4-4-4-6-6-6-7-7-7---------------------------------|
d|-4-4-4-6-6-6-7-7-7-7-(second time around play)-5---|
a|-2-2-2-4-4-4-5-5-5-7---------------------------5---|
D|-------------------7---------------------------5---|

Thats basically it, im gonna try to figure out The Day We Lied or Soak.
Comments