Oneders - That Thing You Do Chords & Tabs

 

That Thing You Do Chords & Tabs

Oneders Chords & Tabs

Version: 1 Type: Bass Tab 0 ratings
1 star 2 stars 3 stars 4 stars 5 stars
comments

That Thing You Do Bass Tab

Yes, if you have looked up this song you obviously appreciate how amazing this movie was
and how great tom hanks is!!! i swear everything that guy says is hilarious!! anyway, i
went through the bass tabs looking for one that will match the entire song and you know
what, there were a few that worked, but mostly incomplete or with complicated fingering,
this is the basic form of the bass for this song and u play it start to finish, ive heard
someone play it and it sounds awesome!!!!! hope you enjoy it, play it through a
few times and listen to it and u will soon be playing this classic song!

any questions comments or even corrections!! or hey if u just wanna chat e-mail me or
add me at ben_jamin401@hotmail.com     i love hering your responses!

Song: That Thing You Do
Artist: The Wonders

Verse 1
-----------------------------------------------------------------------------|
---------------2----------------------------2--------------------------------|
---------2-2-4-------4------6---------2-2-4-------4------6-------------------|
-0-0-3-4---------5-5----7-7-----0-3-4---------5-5----7-7---------------------|

-----------------------------------------------------------------------------|
---------4---4---------------------------------------------------------------|
-4---4-----4----------22-44-00-----------------------------------------------|
---4------------00-44----------44-22-0---------------------------------------|

Verse 2
-----------------------------------------------------------------------------|
---------------2----------------------------2--------------------------------|
---------2-2-4-------4------6---------2-2-4-------4------6-------------------|
-0-0-3-4---------5-5----7-7-----0-3-4---------5-5----7-7---------------------|

-----------------------------------------------------------------------------|
---------4---4--0-00-00------------------------------------------------------|
-4---4-----4------------2-22-22----------------------------------------------|
---4-------------------------------------------------------------------------|

Chorus
-----------------------------------------------------------------------------|
---------4---4------------------------------------2--------------------------|
-4---4-----4--------2--20--20----------2--0-0-3-4----------------------------|
---4------------0--4-----------0-0-3-4---------------0-0-3-4-0---------------|

Verse 3
-----------------------------------------------------------------------------|
---------------2----------------------------2--------------------------------|
---------2-2-4-------4------6---------2-2-4-------4------6-------------------|
-0-0-3-4---------5-5----7-7-----0-3-4---------5-5----7-7---------------------|

-----------------------------------------------------------------------------|
---------4---4---------------------------------------------------------------|
-4---4-----4----------22-44-00-----------------------------------------------|
---4------------00-44----------44-22-0---------------------------------------|
[ Tab from: http://www.guitartabs.cc/tabs/o/oneders/that_thing_you_do_btab.html ]
Verse 4
-----------------------------------------------------------------------------|
---------------2----------------------------2--------------------------------|
---------2-2-4-------4------6---------2-2-4-------4------6-------------------|
-0-0-3-4---------5-5----7-7-----0-3-4---------5-5----7-7---------------------|

-----------------------------------------------------------------------------|
---------4---4--0-00-00------------------------------------------------------|
-4---4-----4------------2-22-22----------------------------------------------|
---4-------------------------------------------------------------------------|

Chorus
-----------------------------------------------------------------------------|
---------4---4------------------------------------2--------------------------|
-4---4-----4--------2--20--20----------2--0-0-3-4----------------------------|
---4------------0--4-----------0-0-3-4---------------0-0-3-4-0---------------|

Bridge
-----------------------------------------------------------------------------|
---------------------------------4---4---4---4-------------------------------|
-0---0---0---0---4---4---4---4-----4-------4----22222222-33333333-22222222---|
---0-------0-------4-------4-------------------------------------------------|

Verse 4 (solo)
-----------------------------------------------------------------------------|
---------------2----------------------------2--------------------------------|
---------2-2-4-------4------6---------2-2-4-------4------6-------------------|
-0-0-3-4---------5-5----7-7-----0-3-4---------5-5----7-7---------------------|

-----------------------------------------------------------------------------|
---------4---4---------------------------------------------------------------|
-4---4-----4----------22-44-00-----------------------------------------------|
---4------------00-44----------44-22-0---------------------------------------|

Verse 5
-----------------------------------------------------------------------------|
---------------2----------------------------2--------------------------------|
---------2-2-4-------4------6---------2-2-4-------4------6-------------------|
-0-0-3-4---------5-5----7-7-----0-3-4---------5-5----7-7---------------------|

-----------------------------------------------------------------------------|
---------4---4--0-00-00------------------------------------------------------|
-4---4-----4------------2-22-22----------------------------------------------|
---4-------------------------------------------------------------------------|

Chorus
-----------------------------------------------------------------------------|
---------4---4---------------------------------------------------------------|
-4---4-----4--------2--20--20------------------------------------------------|
---4------------0--4---------------------------------------------------------|

Outro
------------------------------------------------------------------------------|
-------------------2-------------------2------------------------------------2-|
---------2-0-0-3-4-----------2-0-0-3-4-----------2--22222222-0000-------------|
-0-0-3-4-------------0-0-3-4-------------0-0-3-4-----------------4444-0-3-4---|
Comments