One True Thing - Do You Remember Chords & Tabs

 

Do You Remember Chords & Tabs

One True Thing Chords & Tabs

Version: 1 Type: Tab 0 ratings
1 star 2 stars 3 stars 4 stars 5 stars
comments

Do You Remember Tab

-------------------------------------------------------------------------------
			      DO YOU REMEMBER? - One True Thing
-------------------------------------------------------------------------------
Tabbed by: chrono_black
Email:chrono__black@hotmail.com

Tuning: EBGDAE

RIFF 1
e|---0**-0**-2**-0*-55-77-----|
B|---2---0---2---0--xx-xx-----|
G|---2---1---2---1--22-44-----|
D|---2---2---4---2------------|
A|---0---2---4---2------------|
E|-------0---2---0------------|

RIFF 2
e|-----------------------|
B|-----------------------|
G|-----------------------|
D|---2**-----------------|
A|---0---2**-4**-2**-----|
E|-------0---2---0-------|
     m   m   m   m 

RIFF 3
e|----------------------|
B|----------------------|
G|------6*-7*-444-2-----|
D|---4*-6--7--444-2-----|
A|---4--4--5--222-0-----|
E|---2------------------|
[ Tab from: http://www.guitartabs.cc/tabs/o/one_true_thing/do_you_remember_tab.html ]
RIFF 4
e|---9~-10~-12~~-----10~-9~~---------9~~-----------------|
B|---------------12~---------10~-12~-----9~-12~-10~~-----|
G|-------------------------------------------------------|
D|-------------------------------------------------------|
A|-------------------------------------------------------|
E|-------------------------------------------------------|

RIFF 5
e|-------------------------------------------|
B|-------------------------------------------|
G|-------------------------------------------|
D|---2**----4~~-4~~--------------------------|
A|---0---2*-4~~-4~~-2*-1212-1111-99-1111-----|
E|-------0--2~~-2~~-0--0-0--0-0--00-0-0------|
     m   m          m  m m  m m  mm m m

RIFF 6
e|-------------|
B|-------------|
G|-------------|
D|---4~~-4-----|
A|---4~~-4-----|
E|---2~~-2-----|

ORDER
RIFF 1
RIFF 2 x2
RIFF 3 x2
RIFF 1
RIFF 2 x2
RIFF 3 x4
RIFF 4 x2
RIFF 5
RIFF 3 x4
RIFF 6
Comments