One Dollar Short - Unsung Hero Chords & Tabs

 

Unsung Hero Chords & Tabs

One Dollar Short Chords & Tabs

Version: 2 Type: Tab 0 ratings
1 star 2 stars 3 stars 4 stars 5 stars
comments

Unsung Hero Tab

Tabbed by:shane henderson
Email:lil_shano_123@hotmail.com

Tuning:standard
[ Tab from: http://www.guitartabs.cc/tabs/o/one_dollar_short/unsung_hero_tab_ver_2.html ]
e|--------------------------------------------------------------------------|
B|--5-5/7/5--------------------------------------------------------5--------|
G|----------7-6-6/7------------------------------------6-7------6^----------|
D|------------------7-7~---------------------------6-7-----7-6~-------------|
A|----------------------2-4-2-0-2-4-2-2~---6-7---7--------------------------|
E|---------------------------------------------7----------------------------|

e|--------------12-----19---------------------------------------------------|
B|---9^-9h10p12-------------------------------------------------------------|
G|--------------------------------------------------------------------------|
D|--------------------------------------------------------------------------|
A|--------------------------------------------------------------------------|
E|--------------------------------------------------------------------------|
Comments