One Dollar Short - Robot Chords & Tabs

 

Robot Chords & Tabs

One Dollar Short Chords & Tabs

Version: 1 Type: Bass Tab 0 ratings
1 star 2 stars 3 stars 4 stars 5 stars
comments

Robot Bass Tab

   
ONE DOLLAR SHORT - Robot

Tabbed by AJ. drlindemans1301@hotmail.com

> = strum 4x   >> = strum 8x   >>> = strum 12x   / = slide   ~ = let ring

Intro A (x1)
G |------------------------------------------------------------------|
D |----------------------------------------000----22----00-----------|
A |----3>>>----3-2-0-------------------------------------------------|
E |---------------------------3----0>>-------------------------------|

Intro B (x2)
G |------------------------------------------------------------------|
D |-------------------- -------------------000----2----00------------|
A |----3>>>----3-2-0-------------------------------------------------|
E |---------------------------3----0>>-------------------------------|

Intro C (x1)
G |------------------------------------------------------------------|
D |-------------------------------------------000----22----00--------|
A |----3>>>----3-2-0-------------------------------------------------|
E |---------------------------3----0--00-----------------------------|

Verse (Repeat Full Intro but only play C [A-3-] 12x with pause after 7th)

Pre-Chorus 
G |-------------------------|
D |-------------------------|
A |----3>>>----5>>----------|
E |-------------------------|
[ Tab from: http://www.guitartabs.cc/tabs/o/one_dollar_short/robot_btab.html ]
Chorus
G |----------------------------------|
D |----------------------------------|		
A |----------------------------------|		(X2)
E |----1~---0~---3~---1~----0--------|

G |--------------------------------------------------------------|
D |--------------------------------------------------------------|
A |--------------------------------------------------------------|
E |----1>>----0>>----3>>----1>----0>----1>>----0>>----3>>----1>>-|

Repeat Verse (x1)
Pre-Chorus (x1)
Chorus (x1)

Bridge
G |----------------------------------------------------------|
D |----------------------------------------------------------|
A |------------------------0/3~---3/5~---5/7~---7/10---9-----|
E |----0~-(big pause)----------------------------------------|

G |----------------------------------------------------------|
D |----------------------------------------------------------|
A |----3~---3/5~---5/7~---7/10---9---3>>---5>>---7>>---------|
E |----------------------------------------------------------|

Repeat Verse (x1) w/out lyrics

Outro 
G |----------------------------------------------------------|
D |----------------------------------------------------------|
A |----3>>>---3-2-0-------77---55---33---22---0--------------|
E |------------------3------------------------------3---0~---|

And that's it. Another awesome song from an awesome band.
 I'm not 100% sure about the bridge but I think the rest is correct. E-mail me
if you have any corrections or questions.
Comments