One Dollar Short - Pinball Arcade Chords & Tabs

 

Pinball Arcade Chords & Tabs

One Dollar Short Chords & Tabs

Version: 1 Type: Tab 0 ratings
1 star 2 stars 3 stars 4 stars 5 stars
comments

Pinball Arcade Tab

Artist: One Dollar Short
Song: Pinball Arcade
Tabbed By: Tim Bryant
Email: theimmoralmonkey@hotmail.com


~ - let ring
>>>> - pick slide

1st Intro
e|-------------------------------------------------------5-5-5-5-5-5-5-5-5--|
B|--------------------5-5-5-5-7-5-5-5-5--7p5--------------------------------|
G|-6-6-6-6-4-6-6-6-6-------------------------6-4-6-6-6-6--------------------|
D|--------------------------------------------------------------------------|
A|--------------------------------------------------------------------------|
E|--------------------------------------------------------------------------|
[ Tab from: http://www.guitartabs.cc/tabs/o/one_dollar_short/pinball_arcade_tab.html ]
2nd intro
e|-5-5-4-4-4-4--------------5-5-5-5-5-5-5-5-4-4-4--|
B|-------------6-6-7-7-7-7-------------------------|
G|-------------------------------------------------|
D|-------------------------------------------------|
A|-------------------------------------------------|
E|-------------------------------------------------|

Verse
e|------------------------|----------------------------------------|
B|------------------------|----------------------------------------|
G|------------------------|--------------------7-7-7-7-7-7-7-7-----|
D|-7-~--------------------|--4-4-4-4--2-2-2-2--7-7-7-7-7-7-7-7--x2-|
A|-7-~--bass--->>>>>>>----|--4-4-4-4--2-2-2-2--5-5-5-5-5-5-5-5-----|
E|-5-~--------------------|--2-2-2-2--0-0-0-0----------------------|

Chorus same as verse
1st intro
verse
chorus x4

solo
e|-----------------------------|--------------------|
B|-10---10-----12-10-9-10------|10---10---16-14-13--|
G|----9----9-------------------|---9----9-----------|
D|-------------------------x9--|--------------------|
A|-----------------------------|--------------------|
E|-----------------------------|--------------------|

verse 
chorus x4
Comments