One Dollar Short - Fear Of Falling Chords & Tabs

 

Fear Of Falling Chords & Tabs

One Dollar Short Chords & Tabs

Version: 1 Type: Bass Tab 0 ratings
1 star 2 stars 3 stars 4 stars 5 stars
comments

Fear Of Falling Bass Tab

FEAR OF FALLING - One Dollar Short

Tabbed by AJ. drlindemans1301@hotmail.com

Intro 1
G|----------------------------------------------------------|
D|----------------------------------------------------------|
A|----------------------------------3~----------------------|
E|-----5~------5~-------1~------------------3~--------------|

Intro 2 (x4)
G|--------------------------------------------|
D|--------------------------------------------|
A|-----5>------1>------------------3>---------|
E|-------------------------1>-----------------|
[ Tab from: http://www.guitartabs.cc/tabs/o/one_dollar_short/fear_of_falling_btab.html ]
Bridge
G|---------------------------------------------------|
D|---------------------------------------------------|
A|------5~------------------55--5--------------------|
E|----------------22--2----------------22222----00000|

Verse (x4)
G|-------------------------------------------------|
D|-------------------------------------------------|
A|-----5>----------------5>------------------------|
E|--------------2>-----------------2>------0>------|

Chorus (x2)
G|-----------------------------------------------|
D|-----------------------------------------------|
A|--------------------------5>-------------------|
E|-----5>------0>--------------------4>----------|

STRUCTURE
Intro 1
Intro 2
Bridge
Verse
Chorus
Intro 2 (x1/2)
Verse
Chorus til end

Questions, comments or corrections email me.
Comments