One Dollar Short - Board Game Chords & Tabs

 

Board Game Chords & Tabs

One Dollar Short Chords & Tabs

Version: 1 Type: Tab 0 ratings
1 star 2 stars 3 stars 4 stars 5 stars
comments

Board Game Tab

Author: One Dollar Short
Title: Board Game
Album: Board Game E.P.
Tabbed by: Tim Bryant
E-mail:  theimmoralmonkey@hotmail.com


Here is a great little song I heard in the suburbs down here in oz. Great little ozzie 
band. I donít think they are really big internationally yet, but will be soon!!! This 
song is really easy to play, sounds great. If you donít have any idea of how it goes give 
me an  email, and ill send you the mp3 of it.
Here it is people

Intro
e|---------------------------------------------------------------------|
B|---------------------------------------------------------------------|
G|-9-9-9-9-11-11-11-11-------------------------------------------------|
D|---------------------------------------------------------------------|
A|-7-7-7-7--9--9--9--9-------------------------------------------------|
E|---------------------------------------------------------------------|

Intro (Part 2) x 2
e|---------------------------------------------------------------------|
B|---------------------------------------------------------------------|
G|-6-6-6-6-6-6-------------------------------4-4-----------------------|
D|-6-6-6-6-6-6--7-7-7-7-7--2-2-2-2-2-2--4-4--4-4-----------------------| 
A|-4-4-4-4-4-4--7-7-7-7-7--2-2-2-2-2-2--4-4--2-2-----------------------|
E|--------------5-5-5-5-5--0-0-0-0-0-0--2-2----------------------------|

Verse (part 1) x 2
e|---------------------------------------------------------------------|
B|---------------------------------------------------------------------|
G|-66-6-66-6-----------------------------44-4--------------------------|
D|-66-6-66-6--77-7-77-7--22-2-22-2--44-4-44-4--------------------------| 
A|-44-4-44-4--77-7-77-7--22-2-22-2--44-4-22-2--------------------------|
E|------------55-5-55-5--00-0-00-0--22-2-------------------------------|
   **   **    **   **    **   **    **   **

Verse (part 2) x 2
e|---------------------------------------------------------------------|
B|---------------------------------------------------------------------|
G|-6-6-6-6-6-6-------------------------------4-4-----------------------|
D|-6-6-6-6-6-6--7-7-7-7-7--2-2-2-2-2-2--4-4--4-4-----------------------| 
A|-4-4-4-4-4-4--7-7-7-7-7--2-2-2-2-2-2--4-4--2-2-----------------------|
E|--------------5-5-5-5-5--0-0-0-0-0-0--2-2----------------------------| 

Intro (part 2) x 2
[ Tab from: http://www.guitartabs.cc/tabs/o/one_dollar_short/board_game_tab.html ]
Pre Chorus x 1
e|---------------------------------------------------------------------------|
B|---------------------------------------------------------------------------|
G|----------------66-6-66-6-66-6-66-6----------------------------------------|
D|-7-7-7-7-7-7-7--66-6-66-6-66-6-66-6--77-7-77-7-77-7-77-7--4-4-4-4-4-4-4-4--|
A|-7-7-7-7-7-7-7--44-4-44-4-44-4-44-4--77-7-77-7-77-7-77-7--4-4-4-4-4-4-4-4--|
E|-5-5-5-5-5-5-5-----------------------55-5-55-5-55-5-55-5--2-2-2-2-2-2-2-2--|
                  **   **   **   **    **   **   **   **  


Chorus x 3
e|---------------------------------------------------------------------|
B|---------------------------------------------------------------------|
G|-6-6-6-6-------------------------------------------------------------|
D|-6-6-6-6--2-2-4-4--7-7-7-7-6-6-4-4-----------------------------------|
A|-4-4-4-4--2-2-2-2--7-7-7-7-6-6-4-4-----------------------------------|
E|----------0-0-2-2--5-5-5-5-4-4-2-2-----------------------------------|

Post Chorus x 1
e|---------------------------------------------------------------------|
B|---------------------------------------------------------------------|
G|-6-6-6-6-------------------------------------------------------------|
D|-6-6-6-6--2-2-2-2-4--------------------------------------------------|
A|-4-4-4-4--2-2-2-2-4--------------------------------------------------|
E|----------0-0-0-0-2--------------------------------------------------|

Interlude x 1
e|---------2-----------------------------------------------------------|
B|-4-5~------5-4-------------------------------------------------------|
G|---------------4~----------------------------------------------------|
D|---------------------------------------------------------------------|
A|---------------------------------------------------------------------|
E|---------------------------------------------------------------------|

Verse (part 1) x 2

Verse (part 2) x 2

Pre Chorus x 1

Chorus x 3

Post Chorus x 1 

Solo
e|-----4------------------------------------------4--------4---------4------|
B|-----------------------------------------------------------5--------------|
G|-4h6---6~-----------------------------------4h6---6---4h6------4h6---6~---|
D|--------------------------------------------------------------------------|
A|--------------------------------------------------------------------------|
E|--------------------------------------------------------------------------|

e|-----4---------4----------------------------------------------------------|
B|--------------------------------------------------------------------------|
G|-4h6---6---4h6-------4----------------------------------------------------|
D|---------------------4- x 24 -----7-7-7-7-7-7-7-7--4-4-4-4-4-4-4-4--------|
A|---------------------2------------7-7-7-7-7-7-7-7--4-4-4-4-4-4-4-4--------|
E|----------------------------------5-5-5-5-5-5-5-5--2-2-2-2-2-2-2-2--------|

Finish x 4 (verse)

Thatís it people that aint soooo bad after all.
Iíve put the solo in coz im a nice guy. Any chicks wanna hook up u know where to contact me.
Comments