One Direction - Story Of My Life Chords & Tabs

 

One Direction Chords & Tabs

Version: 1 Type: Tab 0 ratings
1 star 2 stars 3 stars 4 stars 5 stars
comments

Story Of My Life Tab

   
-------------------------------------------------------------------------------
                             Story of My Life    by One Direction
-------------------------------------------------------------------------------
Tabbed by: Sarah Jackson


This is just just the intro and the first verse so far but i'm hoping to add more 
if i can figure it out :)

Comment and rate to let me know what you think. Thanks!


Tuning: Standard
Capo 3rd Fret


      Am
e|---------------0-----------------------0-----------------------------------|
B|-------1p0--------1p0----------1p0--------1p0------------------------------|
G|----2-------2----------2---2-------2----------2----------------------------|
D|---------------------------------------------------------------------------|
A|---------------------------------------------------------------------------|
E|---------------------------------------------------------------------------|

      C
e|---------------------------------------------------------------------------|
B|---------1---------------1------------1----------------1-------------------|
G|------------0---------------------------------------------0----------------|
D|----0h2--------2------3------3-----2-----2------0h2----------2-------------|
A|---------------------------------------------------------------------------|
E|---------------------------------------------------------------------------|
      
      Am
e|---------------0-----------------------0-----------------------------------|
B|-------1p0--------1p0----------1p0--------1p0------------------------------|
G|----2-------2----------2---2-------2----------2----------------------------|
D|---------------------------------------------------------------------------|
A|---------------------------------------------------------------------------|
E|---------------------------------------------------------------------------|

      C   
e|---------------------------------------------------------------------------|
B|---------1--------------1-----------1-----------1--------------------------|
G|------------0--------------------------------------0-----------------------|
D|----0h2--------2-----3-----3-----2-----2-----2-----------------------------|
A|---------------------------------------------------------------------------|
E|---------------------------------------------------------------------------|

      Am  Written on these walls are the stories that I can't explain
e|---------------0-----------------------0-----------------------------------|
B|-------1p0--------1p0----------1p0--------1p0------------------------------|
G|----2-------2----------2---2-------2----------2----------------------------|
D|---------------------------------------------------------------------------|
A|---------------------------------------------------------------------------|
E|---------------------------------------------------------------------------|
[ Tab from: http://www.guitartabs.cc/tabs/o/one_direction/story_of_my_life_tab.html ]
      C
e|---------------------------------------------------------------------------|
B|---------1--------------1-----------1-------1------------------------------|
G|------------------------------------------------0--------------------------|
D|----0h2--------2-----3-----3-----2-----2-----------------------------------|
A|---------------------------------------------------------------------------|
E|---------------------------------------------------------------------------|

      Am  Leave my heart open but it stays right here empty for days
e|---------------0-----------------------0-----------------------------------|
B|-------1p0--------1p0----------1p0--------1--------------------------------|
G|----2-------2----------2---2-------2---------------------------------------|
D|---------------------------------------------------------------------------|
A|---------------------------------------------------------------------------|
E|---------------------------------------------------------------------------|

      C
e|---------------------------------------------------------------------------|
B|---------1------------1-----------1-------1--------------------------------|
G|-----------------------------------------------0---------------------------|
D|----0h2------2-----3-----3-----2-----2-------------------------------------|
A|---------------------------------------------------------------------------|
E|---------------------------------------------------------------------------|

      Am  She told me in the morning she don't feel the same about us in her bones
e|---------------0-----------------------0-----------------------------------|
B|-------1p0--------1p0----------1p0--------1--------------------------------|
G|----2-------2----------2---2-------2---------------------------------------|
D|---------------------------------------------------------------------------|
A|---------------------------------------------------------------------------|
E|---------------------------------------------------------------------------|

      C
e|---------------------------------------------------------------------------|
B|---------1-------------1--------------1--------1---------------------------|
G|--------------------------------------------------0------------------------|
D|----0h2-----2------3-------3------2-------2--------------------------------|
A|---------------------------------------------------------------------------|
E|---------------------------------------------------------------------------|

      Am  It seems to me that when I die these words will be written on my stone
e|---------------0-----------------------0-----------------------------------|
B|-------1p0--------1p0----------1p0--------1--------------------------------|
G|----2-------2----------2---2-------2---------------------------------------|
D|---------------------------------------------------------------------------|
A|---------------------------------------------------------------------------|
E|---------------------------------------------------------------------------|

      C
e|---------------------------------------------------------------------------|
B|---------1-------------1--------------1--------1---------------------------|
G|--------------------------------------------------0------------------------|
D|----0h2-----2------3-------3------2-------2--------------------------------|
A|---------------------------------------------------------------------------|
E|---------------------------------------------------------------------------|


************************************

| h   hammer-on
| p   pull-off

************************************

Comments