One Direction - One Thing Chords & Tabs

 

One Thing Chords & Tabs

One Direction Chords & Tabs

Version: 5 Type: Tab 0 ratings
1 star 2 stars 3 stars 4 stars 5 stars
comments

One Thing Tab

Hello there Directioners!
Thanks for the 146215 hits(9.10.12)
Rate or comment. 
Let me know what you think about this tab.

Listen to the song to get the right strumming.
Don't worry if you can't get it at first.

Intro :

e|--x---x----x--x--x----x---*--x---*---|
B|--x---x----x--x--x----x---*--x---*---|
G|--11--11---6--6--6----11--*--11--*---|
D|--x---x----x--x--x----x---*--x---*---|
A|--9---9----4--4--4----9---*--9---*---|
E|--10--10---5--5--5----10--*--10--*---|

Verse 1 :

[Liam]

e|--x---x----x--x--x----x---*--x---x----|
B|--x---x----x--x--x----x---*--x---x----|
G|--11--11---6--6--6----11--*--11--11---|
D|--x---x----x--x--x----x---*--x---x----|
A|--9---9----4--4--4----9---*--9---9----|
E|--10--10---5--5--5----10--*--10--10---|

e|--x---x----x--x--x----x--*--x--x---|
B|--x---x----x--x--x----x--*--x--x---|
G|--11--11---6--6--6----4--*--4--4---|
D|--x---x----x--x--x----x--*--x--x---|
A|--9---9----4--4--4----2--*--3--3---|
E|--10--10---5--5--5----3--*--2--2---|

e|--x--x----x--x--x----x--*--x--x---|
B|--x--x----x--x--x----x--*--x--x---|
G|--4--4----6--6--6----7--*--7--7---|
D|--x--x----x--x--x----x--*--x--x---|
A|--2--2----4--4--4----5--*--5--5---|
E|--3--3----5--5--5----7--*--7--7---|

e|--x--*--x--x----x----x----|
B|--x--*--x--x----x----x----|
G|--7--*--7--7----6----11---|
D|--x--*--x--x----7----x----|
A|--5--*--5--5----7----9----|
E|--7--*--7--7----5----10---|

[Harry]

e|--x---x---x----x--x--x----x---x---x---x---x---x---x---x----|
B|--x---x---x----x--x--x----x---x---x---x---x---x---x---x----|
G|--11--11--11---6--6--6----11--11--11--11--11--11--11--11---|
D|--x---x---x----x--x--x----x---x---x---x---x---x---x---x----|
A|--9---9---9----4--4--4----9---9---9---9---9---9---9---9----|
E|--10--10--10---5--5--5----10--10--10--10--10--10--10--10---|

e|--x---x---x----x--x--x----x--x--x--x--x--x--x--x----|
B|--x---x---x----x--x--x----x--x--x--x--x--x--x--x----|
G|--11--11--11---6--6--6----4--4--4--4--4--4--4--4----|
D|--x---x---x----x--x--x----x--x--x--x--x--x--x--x----|
A|--9---9---9----4--4--4----2--2--2--2--2--2--2--2----|
E|--10--10--10---5--5--5----3--3--3--3--3--3--3--3----|

e|--x--x--x----x--x--x----x--x--x--x--x--x--x--x----|
B|--x--x--x----x--x--x----x--x--x--x--x--x--x--x----|
G|--4--4--4----6--6--6----7--7--7--7--7--7--7--7----|
D|--x--x--x----x--x--x----x--x--x--x--x--x--x--x----|
A|--2--2--2----4--4--4----5--5--5--5--5--5--5--5----|
E|--3--3--3----5--5--5----7--7--7--7--7--7--7--7----|

e|--x--x--x----x----x---x---x------|
B|--x--x--x----x----x---x---x------|
G|--7--7--7----6----11--11--11-----|
D|--x--x--x----7----x---x---x------|
A|--5--5--5----7----9---9---9------|
E|--7--7--7----5----10--10--10-----|

Pre chorus :

[Zayn]

e|--x--x--x--x--x--x--x---x--x--x--x--x--x--x----|
B|--x--x--x--x--x--x--x---x--x--x--x--x--x--x----|
G|--4--4--4--4--4--4--4---7--7--7--7--7--7--7----|
D|--5--5--5--5--5--5--5---7--7--7--7--7--7--7----|
A|--5--5--5--5--5--5--5---5--5--5--5--5--5--5----|
E|--3--3--3--3--3--3--3---5--5--5--5--5--5--5----|

e|--x--x--x--x--x--x--x---x--x--x--x--x--x--x----|
B|--x--x--x--x--x--x--x---x--x--x--x--x--x--x----|
G|--7--7--7--7--7--7--7---6--6--6--6--6--6--6----|
D|--x--x--x--x--x--x--x---7--7--7--7--7--7--7----|
A|--5--5--5--5--5--5--5---7--7--7--7--7--7--7----|
E|--7--7--7--7--7--7--7---5--5--5--5--5--5--5----|

e|--x--x--x--x--x--x--x---x--x--x--x--x--x--x----|
B|--x--x--x--x--x--x--x---x--x--x--x--x--x--x----|
G|--4--4--4--4--4--4--4---7--7--7--7--7--7--7----|
D|--5--5--5--5--5--5--5---7--7--7--7--7--7--7----|
A|--5--5--5--5--5--5--5---5--5--5--5--5--5--5----|
E|--3--3--3--3--3--3--3---5--5--5--5--5--5--5----|

e|--x--*--x--x---x--x--x--x---|
B|--x--*--x--x---x--x--x--x---|
G|--7--*--7--7---x--x--x--x---|
D|--x--*--x--x---x--x--x--x---|
A|--5--*--5--5---x--x--x--x---|
E|--7--*--7--7---x--x--x--x---|

Chorus :

e|--x--x---x--x--x---x--x--x---x--x--x---x--x---x--x--x---x--x---x--x--x----|
B|--x--x---x--x--x---x--x--x---x--x--x---x--x---x--x--x---x--x---x--x--x----|
G|--7--7---x--x--x---x--x--x---7--7--7---7--7---4--4--4---x--x---7--7--7----|
D|--7--7---5--5--5---7--7--7---7--7--7---x--x---5--5--5---7--7---7--7--7----|
A|--5--5---5--5--5---7--7--7---5--5--5---5--5---5--5--5---7--7---5--5--5----|
E|--5--5---3--3--3---5--5--5---5--5--5---7--7---3--3--3---5--5---5--5--5----|
[ Tab from: http://www.guitartabs.cc/tabs/o/one_direction/one_thing_tab_ver_5.html ]
e|--x--x---x--x--x---x--x--x---x--x--x---x--x--x--x--x---x--x---x--x--x----|
B|--x--x---x--x--x---x--x--x---x--x--x---x--x--x--x--x---x--x---x--x--x----|
G|--7--7---x--x--x---x--x--x---7--7--7---7--7--7--7--7---x--x---7--7--7----|
D|--7--7---5--5--5---7--7--7---x--x--x---x--x--x--x--x---7--7---7--7--7----|
A|--5--5---5--5--5---7--7--7---5--5--5---5--5--5--5--5---7--7---5--5--5----|
E|--5--5---3--3--3---5--5--5---7--7--7---7--7--7--7--7---5--5---5--5--5----|

e|--x--x--x--x--x---x--x---x--x--x----|
B|--x--x--x--x--x---x--x---x--x--x----|
G|--7--7--7--7--7---x--x---7--7--7----|
D|--x--x--x--x--x---7--7---7--7--7----|
A|--5--5--5--5--5---7--7---5--5--5----|
E|--7--7--7--7--7---5--5---5--5--5----|

*repeat intro*

Verse 2 :

[Niall]

e|--x---x---x----x--x--x----x---x---x---x---x---x---x---x----|
B|--x---x---x----x--x--x----x---x---x---x---x---x---x---x----|
G|--11--11--11---6--6--6----11--11--11--11--11--11--11--11---|
D|--x---x---x----x--x--x----x---x---x---x---x---x---x---x----|
A|--9---9---9----4--4--4----9---9---9---9---9---9---9---9----|
E|--10--10--10---5--5--5----10--10--10--10--10--10--10--10---|

e|--x---x---x----x--x--x----x--x--x--x--x--x--x--x----|
B|--x---x---x----x--x--x----x--x--x--x--x--x--x--x----|
G|--11--11--11---6--6--6----4--4--4--4--4--4--4--4----|
D|--x---x---x----x--x--x----x--x--x--x--x--x--x--x----|
A|--9---9---9----4--4--4----2--2--2--2--2--2--2--2----|
E|--10--10--10---5--5--5----3--3--3--3--3--3--3--3----|

e|--x--x--x----x--x--x----x--x--x--x--x--x--x--x----|
B|--x--x--x----x--x--x----x--x--x--x--x--x--x--x----|
G|--4--4--4----6--6--6----7--7--7--7--7--7--7--7----|
D|--x--x--x----x--x--x----x--x--x--x--x--x--x--x----|
A|--2--2--2----4--4--4----5--5--5--5--5--5--5--5----|
E|--3--3--3----5--5--5----7--7--7--7--7--7--7--7----|

e|--x--x--x----x----x---x---x------|
B|--x--x--x----x----x---x---x------|
G|--7--7--7----6----11--11--11-----|
D|--x--x--x----7----x---x---x------|
A|--5--5--5----7----9---9---9------|
E|--7--7--7----5----10--10--10-----|

Pre chorus :

[Louis]

e|--x--x--x--x--x--x--x---x--x--x--x--x--x--x----|
B|--x--x--x--x--x--x--x---x--x--x--x--x--x--x----|
G|--4--4--4--4--4--4--4---7--7--7--7--7--7--7----|
D|--5--5--5--5--5--5--5---7--7--7--7--7--7--7----|
A|--5--5--5--5--5--5--5---5--5--5--5--5--5--5----|
E|--3--3--3--3--3--3--3---5--5--5--5--5--5--5----|

e|--x--x--x--x--x--x--x---x--x--x--x--x--x--x----|
B|--x--x--x--x--x--x--x---x--x--x--x--x--x--x----|
G|--7--7--7--7--7--7--7---6--6--6--6--6--6--6----|
D|--x--x--x--x--x--x--x---7--7--7--7--7--7--7----|
A|--5--5--5--5--5--5--5---7--7--7--7--7--7--7----|
E|--7--7--7--7--7--7--7---5--5--5--5--5--5--5----|

e|--x--x--x--x--x--x--x---x--x--x--x--x--x--x----|
B|--x--x--x--x--x--x--x---x--x--x--x--x--x--x----|
G|--4--4--4--4--4--4--4---7--7--7--7--7--7--7----|
D|--5--5--5--5--5--5--5---7--7--7--7--7--7--7----|
A|--5--5--5--5--5--5--5---5--5--5--5--5--5--5----|
E|--3--3--3--3--3--3--3---5--5--5--5--5--5--5----|

e|--x--*--x--x---x--x--x--x---|
B|--x--*--x--x---x--x--x--x---|
G|--7--*--7--7---x--x--x--x---|
D|--x--*--x--x---x--x--x--x---|
A|--5--*--5--5---x--x--x--x---|
E|--7--*--7--7---x--x--x--x---|

Chorus :

e|--x--x---x--x--x---x--x--x---x--x--x---x--x---x--x--x---x--x---x--x--x----|
B|--x--x---x--x--x---x--x--x---x--x--x---x--x---x--x--x---x--x---x--x--x----|
G|--7--7---x--x--x---x--x--x---7--7--7---7--7---4--4--4---x--x---7--7--7----|
D|--7--7---5--5--5---7--7--7---7--7--7---x--x---5--5--5---7--7---7--7--7----|
A|--5--5---5--5--5---7--7--7---5--5--5---5--5---5--5--5---7--7---5--5--5----|
E|--5--5---3--3--3---5--5--5---5--5--5---7--7---3--3--3---5--5---5--5--5----|

e|--x--x---x--x--x---x--x--x---x--x--x---x--x--x--x--x---x--x---x--x--x----|
B|--x--x---x--x--x---x--x--x---x--x--x---x--x--x--x--x---x--x---x--x--x----|
G|--7--7---x--x--x---x--x--x---7--7--7---7--7--7--7--7---x--x---7--7--7----|
D|--7--7---5--5--5---7--7--7---x--x--x---x--x--x--x--x---7--7---7--7--7----|
A|--5--5---5--5--5---7--7--7---5--5--5---5--5--5--5--5---7--7---5--5--5----|
E|--5--5---3--3--3---5--5--5---7--7--7---7--7--7--7--7---5--5---5--5--5----|

e|--x--x--x--x--x---x--x---x--x--x----|
B|--x--x--x--x--x---x--x---x--x--x----|
G|--7--7--7--7--7---x--x---7--7--7----|
D|--x--x--x--x--x---7--7---7--7--7----|
A|--5--5--5--5--5---7--7---5--5--5----|
E|--7--7--7--7--7---5--5---5--5--5----|

The part where they go ouohhhhhhhhh ouoaahhhhhh...

e|--x---x---x---x---x---x---x--*--x--x---x---x---|
B|--x---x---x---x---x---x---x--*--x--x---x---x---|
G|--4---7---7---6---4---7---7--*--7--7---6---7---|
D|--5---7---x---7---5---7---x--*--x--x---7---7---|
A|--5---5---5---7---5---5---5--*--5--5---7---5---|
E|--3---5---7---5---3---5---7--*--7--7---5---5---|

Then, repeat the chorus again. THE END.
Hope this will help you. Tell me if there's a mistake and I will try to fix it. 
Sometimes I get mixed up a few parts of the song.
By the way,
'x' means the string is muted and '*' means you tap it or palm mute it.
Comments