One Direction - Moments Chords & Tabs

 

One Direction Chords & Tabs

Version: 2 Type: Tab 0 ratings
1 star 2 stars 3 stars 4 stars 5 stars
comments

Moments Tab

   
-"Moments" By One Direction
-Plucking
-Standard Tuning
-Hope you guys enjoy! If I made some mistakes, correct me please! :) xo
-***On the G Chord, I hammer first thru my 3rd finger, then slide it down with the same, 
and last hammered it on to my pinky..hope that makes sense!***

VERSE :
     D                           A
E|---2------2-------------------------------------------------------------------|
B|-------3-----3-----------------2------2---------------------------------------|
G|-----2-----2---(x4)----------------2-----2--(x4)------------------------------|
D|---0----0------------------------2-----2--------------------------------------|
A|-------------------------------0----0-----------------------------------------|
E|------------------------------------------------------------------------------|
Shut the door, turn the light off...    With you, I wanna feel your love...

    Bm
E|---------------------------------------------------------------------------|
B|--3------3-----0h3-------3-----3------3-----0h3-----3----------------------|
G|-----4-----4--------4-------4-----4------4-------4-----4-------------------|
D|----4-----4--------4-------4-----4------4-------4-----4--------------------|
A|--1----1-------1-------1-------1----1-------1-------1----------------------|
E|---------------------------------------------------------------------------|
I wanna lay beside you...                     Even though I try...

  G (Without having fingers 3&4)
E|--------------------------------------------------------------------------------|
B|-0-------0-----0h2-----2----2h3-------3-----3h5------5--------------------------|
G|-----0------0------0-----0--------0---------------------------------------------|
D|---0------0-------0-----0-------0--------0-------0------0-----------------------|
A|----------------------------------------0-------0------0------------------------|
E|-3-----3-------3-----3------3-------3-------3-------3---------------------------|


(REPEAT) ^^^^^^^
(D)Heart beats harder
Time escapes me
Trembling hands, (A)touch skin
It makes this
Harder  (Bm)
And tears stream
Down my face  (G)

MIDDLE : (Not necessary to pluck. OPTIONAL)
     Bm             A               D                   G
E|------------------------------------------------------------------------|
B|--3------3--------2------2--------3-------3----------3-------3----------|
G|-----4---------------2----------------2------2-----------0------0-------|
D|----4-----4---------2-----2---------0------0-----------0------0---------|
A|--2----2----------0----0----------0-----0-------------------------------|
E|-----------------------------------------------------3-----3------------|
if we could only have this life for one more day...
[ Tab from: http://www.guitartabs.cc/tabs/o/one_direction/moments_tab_ver_2.html ]
    Bm           A               G               STRUM G
E|---------------------------------------------------3---------------------|
B|-3------3-------2------2-------3-------3---------- 3---------------------|
G|----4--------------2---------------0------0------------------------------|
D|---4------4-------2-----2--------0-------0-------------------------------|
A|-2----2---------0----0-----------------------------2---------------------|
E|-------------------------------3-----3------------ 3---------------------|
If we could only turn back time...

CHORUS :
You know I'll be
D
Your life, your voice, your reason to be
A
My love, my heart, is breathing for this
Bm
Moment in time
                       G
I'll find the words to say
Before you leave me today


(Not necessary to pluck. OPTIONAL)
(D)Close the door
Throw the keys
Don't wanna be (A)reminded
Don't wanna be seen
Don't wanna be without (Bm)you
My judgements clouded
Like tonights sky   (G)
..ah..ah..ah..

Hands are (D)silent
Voices numb
Try to scream (A)out my lungs
It makes this
Harder  (Bm)
And the tears stream down my face   (G)

MIDDLE : (Not necessary to pluck. OPTIONAL)
     Bm             A               D                   G
E|------------------------------------------------------------------------|
B|--3------3--------2------2--------3-------3----------3-------3----------|
G|-----4---------------2----------------2------2-----------0------0-------|
D|----4-----4---------2-----2---------0------0-----------0------0---------|
A|--2----2----------0----0----------0-----0-------------------------------|
E|-----------------------------------------------------3-----3------------|
if we could only have this life for one more day...

    Bm           A               G               STRUM G
E|---------------------------------------------------3---------------------|
B|-3------3-------2------2-------3-------3---------- 3---------------------|
G|----4--------------2---------------0------0------------------------------|
D|---4------4-------2-----2--------0-------0-------------------------------|
A|-2----2---------0----0-----------------------------2---------------------|
E|-------------------------------3-----3------------ 3---------------------|
If we could only turn back time...


CHORUS :
You know I'll be
D
Your life, your voice, your reason to be
A
My love, my heart, is breathing for this
Bm
Moment in time
                       G
I'll find the words to say
Before you leave me today

BRIDGE :
Bm
Flashes lights in my mind
A
Going back to the time
D
Playing games in the street
G
Kicking balls with my feet

Bm
There's a numb in my toes
A
Standing close to the edge
D
There's a pile of clothes
G
At the end of your bed

Bm                     A
As I feel myself fall
G (Strum once)
Make a joke of it all


CHORUS :
You know I'll be
D
Your life, your voice, your reason to be
A
My love, my heart, is breathing for this
Bm
Moment in time
                       G
I'll find the words to say
Before you leave me today (x2)
Comments