One Direction - Little Things Chords & Tabs

 

Little Things Chords & Tabs

One Direction Chords & Tabs

Version: 6 Type: Tab 0 ratings
1 star 2 stars 3 stars 4 stars 5 stars
comments

Little Things Tab

   
Chords used:

G - 320033
C - 032010
Em7 - 022030
D/F# - 200230
D  - 000232
Em - 022000



No Capo


Intro

    G                               C
e|------------------------------------------------------------------|
B|------3-----3---------3-----3---------3-----3---------3-----3-----|
G|------0-----0---0-----0-----0---------0-----0---0-----0-----0---0-|
D|----0-----0---0-----0-----0---------2-----2---2-----2-----2---2---|
A|------------------------------0-2-3-----3---------3-----3---------|
E|--3-----3---------3-----3-----------------------------------------|


    Em7             D/F#            C        D       G
  -----------------------------------------------2-------------------|
  ------3-----3---------3-----3----------3-------3-------3-----3-----|
  ------0-----0---0-----2-----2---2------0-----2---2-----0-----0---0-|
  ----2-----2---2-----0-----0---0------2---2-0---------0-----0---0---|
  ----------------------------------3--------------------------------|
  --0-----0---------2-----2--------------------------3-----3---------|



Verse 1

    G                               C
e|------------------------------------------------------------------|
B|------3-----3---------3-----3---------3-----3---------3-----3-----|
G|------0-----0---0-----0-----0---------0-----0---0-----0-----0---0-|
D|----0-----0---0-----0-----0---------2-----2---2-----2-----2---2---|
A|------------------------------0-2-3-----3---------3-----3---------|
E|--3-----3---------3-----3-----------------------------------------|


    Em7             D/F#            C        D       G
  -----------------------------------------------2-------------------|
  ------3-----3---------3-----3----------3-------3-------3-----3-----|
  ------0-----0---0-----2-----2---2------0-----2---2-----0-----0---0-| x2
  ----2-----2---2-----0-----0---0------2---2-0---------0-----0---0---|
  ----------------------------------3--------------------------------|
  --0-----0---------2-----2--------------------------3-----3---------|

     G
Your hand fits in mine like it's made just for me
    C
But bear this in mind it was meant to be
        Em7                          D/F#
And I'm joining up the dots with the freckles on your cheeks
       C         D        G
And it all makes sense to me


  G
I know you've never loved the crinkles by your eyes
         C
When you smile you've never loved your stomach or your thighs
    Em7                         D/F#
The dimples in your back at the bottom of your spine
         C         D      G
But I'll love them endlessly



Chorus

   Am7             C               Em              D
e|-----------------------------------------------------2-3-2-------|
B|-----1-----1---------1-----1---------0-----0---------3-3-3-3-----|
G|-----0-----0---0-----0-----0---0-----0-----0---0---2---------2---| x2
D|---2-----2---2-----2-----2---2-----2-----2---2---0-------------0-|
A|-0-----0---------3-----3-----------------------------------------|
E|---------------------------------0-----0-------------------------|

Am7                       C            Em        D
 I won't let these little things slip, out of my mouth
         Am7      C            Em            D
But if I do, it's you, Oh it's you, They add up to

   C               C       G
e|-----------------0-------------------------------|
B|-----1-----1-----1-----------3-----3-----3-------|
G|-----0-----0---0-0-----------0-----0-----0-------|
D|---2-----2---2---2---------0-----0-----0---------|
A|-3-----3---------3-------------------------------|
E|-------------------------3-----3-----3-----------|

       C                  C -once          G
I'm in love with you, And all these little things



Verse 2

    G                               C
e|------------------------------------------------------------------|
B|------3-----3---------3-----3---------3-----3---------3-----3-----|
G|------0-----0---0-----0-----0---------0-----0---0-----0-----0---0-|
D|----0-----0---0-----0-----0---------2-----2---2-----2-----2---2---|
A|------------------------------0-2-3-----3---------3-----3---------|
E|--3-----3---------3-----3-----------------------------------------|


    Em7             D/F#            C        D       G
  -----------------------------------------------2-------------------|
  ------3-----3---------3-----3----------3-------3-------3-----3-----|
  ------0-----0---0-----2-----2---2------0-----2---2-----0-----0---0-| x2
  ----2-----2---2-----0-----0---0------2---2-0---------0-----0---0---|
  ----------------------------------3--------------------------------|
  --0-----0---------2-----2--------------------------3-----3---------|
[ Tab from: http://www.guitartabs.cc/tabs/o/one_direction/little_things_tab_ver_6.html ]
G
You can't go to bed, Without a cup of tea,
    C
And maybe that's the reason that you talk, in your sleep
    Em7                             D/F#
And all those conversations are the secrets that I keep
          C        D        G
Though it makes no sense to me

  G
I know you've never loved the sound of your voice
   C
on tape you never want to know how much you weigh
Em7                         D/F#
You still have to squeeze into your jeans
     C         D       G
But, you're perfect to me



Chorus

   Am7             C               Em              D
e|-----------------------------------------------------2-3-2-------|
B|-----1-----1---------1-----1---------0-----0---------3-3-3-3-----|
G|-----0-----0---0-----0-----0---0-----0-----0---0---2---------2---| x2
D|---2-----2---2-----2-----2---2-----2-----2---2---0-------------0-|
A|-0-----0---------3-----3-----------------------------------------|
E|---------------------------------0-----0-------------------------|

Am7                       C            Em        D
 I won't let these little things slip, out of my mouth
         Am7      C            Em            D
But if I do, it's you, Oh it's you, They add up to


    C               C
e|------------------------------------|
B|------1-----1---------1-----1-------|
G|------0-----0---0-----0-----0---0---|
D|----2-----2---2-----2-----2---2-----|
A|--3-----3---------3-----3-----------|
E|------------------------------------|

       C                  C                      Am7
I'm in love with you, And all these little things



Bridge

    Am7             C               G               D/F#
e|------------------------------------------------------------------|
B|------1-----1---------1-----1---------3-----3---------3-----3-----|
G|------0-----0---0-----0-----0---0-----0-----0---0-----2-----2---2-| x4
D|----2-----2---2-----2-----2---2-----0-----0---0-----0-----0---0---|
A|--0-----0---------3-----3-----------------------------------------|
E|----------------------------------3-----3---------2-----2---------|

Am7           C                  G                 D/F#
 You'll never love yourself half as much as I love you
Am7           C                    G                      D/F#
You'll never treat yourself right, darlin' But I want you to,
Am7          C         G        D/F#  Am7          C
If I let you know, I'm here for you,  Maybe you'll love yourself,
     G      D/F#
Like I love you Oh


*Single strums

Am7*                            C*           Em*       D*
 And I've just let these little things slip, out of my mouth
           Am7*         C*        Em*           D -soft strummimg
Cause it's you, Oh it's you, it's you, They add up to
           C                                         Am7
And I'm in love with you, And all these little things



Chorus

   Am7             C               Em              D
e|-----------------------------------------------------2-3-2-------|
B|-----1-----1---------1-----1---------0-----0---------3-3-3-3-----|
G|-----0-----0---0-----0-----0---0-----0-----0---0---2---------2---| x2
D|---2-----2---2-----2-----2---2-----2-----2---2---0-------------0-|
A|-0-----0---------3-----3-----------------------------------------|
E|---------------------------------0-----0-------------------------|

Am7                       C            Em        D
 I won't let these little things slip, out of my mouth
            Am7        C         Em            D
But if it's true, it's you, it's you, they add up to


     C               C        G
e|-------------------0-------------|
B|-------1-----1-----1--------3----|
G|-------0-----0---0-0--------0----|
D|-----2-----2---2---2--------0----|
A|---3-----3---------3--------2----|
E|----------------------------3----|

       C                                  G
I'm in love with you, And all your little things





~~~

So, you may think that this is just a copy of this tab:
http://tabs.ultimate-guitar.com/o/one_direction/little_things_ver4_tab.htm But actually 
it isn't. I took that
tab(because it is really good and I like the way it is organized) as a base of my 
version. However I've found some mistakes in it and corrected them. Also I've added some notes 
that were
missing, so the melody sounds more complete.
I hope you like it :)


P.S.
Thank you for your comment. My previous description was incorrect. I just forgot to
write all I wanted to. My bad :) I don't like when people take another's work and say it was
all their effort. And I don't do it by myself. Sorry again, it was my stupid memory ;)
Comments