One Direction - Little Things Chords & Tabs

 

Little Things Chords & Tabs

One Direction Chords & Tabs

Version: 2 Type: Tab 0 ratings
1 star 2 stars 3 stars 4 stars 5 stars
comments

Little Things Tab

Hey! Didn't find any tabs for this(when I made it, anyway), so thought I could post it 
here when I figured it out.
I know it's not perfect, but I did my best.
Capo on 5th fret, standard tuning.
PS: I would advice using the thumb on most of the low E-string notes.


Intro/Verse:
E|-----2-----0---------2-----0---------2-----0---------2-----0---------0-----0-------0-----0--|
B|-----3-----3---------3-----3---------3-----3---------3-----3---------3-----3-3-----3-----3--|
G|---2-----2---2-----2-----2---------2-----2---2-----2-----2---------2-----2-------2-----2----|
D|-0-----0---------0-----0--------------------------------------------------------------------|
A|--------------------------------------------------------------------------------------------|
E|-----------------------------0-2-3-----3---------3-----3-----2-3-0-----0-------2-----2------|

E|-----0---------------2-----0-----|
B|-----3-------2-3-----3-----3-----|
G|---0---0-----2-----2-----2---2---|
D|-----------2-----0-----0---------|
A|---------0-----------------------|
E|-3-------------------------------|

[ Tab from: http://www.guitartabs.cc/tabs/o/one_direction/little_things_tab_ver_2.html ]
Chorus:
E|-----0-------------2-----0-----------------------------|
B|-----3-----3-------3-----3-----3-----3-------2-3-2-----|
G|-----------0-0-----------------0-----0-0-----2-----2---|
D|-------------------------------------------2---------2-|
A|---2-----2-------2-----2-----2-----2-----0-------------|
E|-0-----0-------0-----0-----0-----0---------------------|


Chorus 1 ending:
(I'm in love with you...and all this little things)
E|---------------------------------|
B|-----3-----3---3-----------------|
G|-----0-----0---0-----2-----2---2-|
D|-------------------0-----0---0---|
A|---2-----2-------0-----0---------|
E|-0-----0-----0-------------------|


Chorus 2 ending(Right before the bridge):
E|---------------------------|
B|-----3-----3-------3-----3-|
G|-----0-----0-------0-----0-|
D|---------------------------|
A|---2-----2-----2-2-----2---|
E|-0-----0-----0-3-----3-----|


Bridge(1st part):
E|-------------------------------------------------------|
B|-----3-----3-------3-----3-------3-----3-----2-3p2-----|
G|-----0-----0-------0-----0-------0-----0-----------2---|
D|-------------------------------------------2---------2-|
A|---2-----2---2---2-----2---2---2-----2---0-------------|
E|-0-----0-------3-----3-------0-----0-------------------|


Bridge(2nd part) or chorus or quiet part or whatever:
Just gently strum where I've marked it:
(Strum) - And I've just let these little things(strum) slip out(strum) of my mouth(strum)

E|--------------|
B|--------------|
G|--0--0--2--2--|
D|--2--0--0--2--|
A|--2--2--0--0--|
E|--0--3--2-----|


End the song by strumming D a single time.
Comments