Omd - Enola Gay Chords & Tabs

 

Enola Gay Chords & Tabs

Omd Chords & Tabs

Version: 1 Type: Tab 0 ratings
1 star 2 stars 3 stars 4 stars 5 stars
comments

Enola Gay Tab

   
Enola Gay 
OMD

It’s my first tab but I don’t think it suond so bad
Riff1
e ----------------------3-------
B 6-5-6-6-5-6-3-6-5-6-3---5-6-3

This is a rif that is played during the entire song often followed by bass and guitar power chord 
F,D,Bb,C

another riff is
Riff2
D-7-8-10-8-7---7-8-10-8-7---3-5-7-5-3---7-7-5-5-3----------------------------------------------------
A8-8---------8------------5-----------5-----------5-6-8-6-5---5-6-8-6-5---7-8-10-8-7---10-10-8-8-7-
E-----------------------------------------------------------6-----------6------------8-------------8-

Riff3
D7-8-7-----7-8-10-8-7------7-5—--8-7-----5-7-5---5-7-5-
A-------8--------------5-5-----8-----8-8-------8-------
E------------------------------------------------------
[ Tab from: http://www.guitartabs.cc/tabs/o/omd/enola_gay_tab.html ]
(Riff1 (many times))
(Riff2)
F     (Riff1 continue)                                                                 
Enola Gay, you should have stayed at home 
D
Yesterday
          Bb     
Aha words can't describe, 
                                C
The feeling and the way you lied
                                      
These games you play, they're gonna end it 
more than tears someday
Aha Enola Gay, it shouldn't ever 
have to end this way

(Riff2)

It's 8:15, and that's the time  
That it's always been
We got your message on the radio, 
Conditions normal and you're coming home

(Riff3 x2)

Enola Gay, is mother proud of 
Little Boy today
Aha this kiss you give, 
It's never ever gonna fade away
(Riff1 continue always)
(Riff2)

(Over this last verses Riff3)
Enola Gay, it shouldn't ever 
Have to end this way
Aha Enola Gay, it shouldn't fade 
In our dreams away

It's 8:15, and that's the time 
That it's always been
We got your message on the radio, 
Conditions normal and you're coming home

Enola Gay, is mother proud of 
Little Boy today
Aha this kiss you give, 
It's never ever gonna fade away



Comments