Oliver Steve - High Noon Chords & Tabs

 

High Noon Chords & Tabs

Oliver Steve Chords & Tabs

Version: 1 Type: Tab 0 ratings
1 star 2 stars 3 stars 4 stars 5 stars
comments

High Noon Tab

I looked all over the internet for tab for this song and couldnt find it,
So I did it myself...its not done but ill finish it later, or u can 
figure it out on your own...this is a sweet spanish/jazz song...
If u wanna impress the girls...LEARN THIS DUDE!!!!! this song ownz!
Thanks go to Steve Oliver for such a awesome song!







E-------------------------------------------------------------------------------------------------------------------
B---------10---13--12--10--13-------10--13--12--10--12--12--10------------------------------------------
G----9------------------------------9--------------------------------------12------------------------------------
D------------------------------------------------------------------------------------------------------------------
A------------------------------------------------------------------------------------------------------------------
E------------------------------------------------------------------------------------------------------------------

E-----------------------------------------------------------------------------------------------------------------
B--------13--12--13--15--13------10---13--12--13--15--15--12-----------------------------------------
G---12----------------------------9-------------------------------------12------------------------------------
D----------------------------------------------------------------------------------------------------------------
A----------------------------------------------------------------------------------------------------------------
E----------------------------------------------------------------------------------------------------------------

E------------------------------------------------------------------------------------------------------------
B-------10--13--12--10--13-----10--13--12--10--12--12--10--------------------------------------
G---9---------------------------9-------------------------------------12---------------------------------
D---------------------------------------------------------------------------------------------------------
A---------------------------------------------------------------------------------------------------------
E---------------------------------------------------------------------------------------------------------

E-----------------------------------------------------------------------------------------------------------------
B------------------------------------10--10--8-----------10--13--12--10--13--------------------------------
G---9-------12--9--------------9---------------9----9-----------------------------------------------------------
D------10----------10--7----------------------------------------------------------------------------------------
A---------------------------10-----------------------------------------------------------------------------------
E-----------------------------------------------------------------------------------------------------------------

[ Tab from: http://www.guitartabs.cc/tabs/o/oliver_steve/high_noon_tab.html ]
E----------------------------------------------------------------------------------------------------------
B----10--13--12--10--12--12--10--12-------13--12--13--15--13----------------------------------
G--9-----------------------------------------12-----------------------------------------------------------
D---------------------------------------------------------------------------------------------------------
A---------------------------------------------------------------------------------------------------------
E---------------------------------------------------------------------------------------------------------

E---------------------------------------------------------------------------------------------------------
B----10--13--12--13--15--15--17--15--13--12--13---10--13--12--10--12--12--10-------------
G--9-------------------------------------------------------9-----------------------------------12--12-
D-------------------------------------------------------------------------------------------------------
A------------------------------------------------------------------------------------------------------
E------------------------------------------------------------------------------------------------------






E------------------------------------------------------------------------------------13-12-12--10-10-----------
B------------------------------------10--10--8--------------------------------13-------------------------------
G---9-------12--9--------------9---------------9--9--10--12--14--14--15------------------------------------
D------10----------10--7----------------------------------------------------------------------------------------
A---------------------------10-----------------------------------------------------------------------------------
E-----------------------------------------------------------------------------------------------------------------

E-------------------------------------------------------------------------------------------------------------------B-----------------------------------------------20-18-18-17-17-18-15--------------------------18-17-17----
G---9--9--10--12--14-15-14--14-15--17-----------------------------16-12--14-14--12-15---------------D-----------------------------------------------------------------------------------------------------------------
A----------------------------------------------------------------------------------------------------------------
E-----------------------------------------------------------------------------------------------------------------

E-------------------------------------------------------------------------------------------------------------------B--15-15-13-13--------------------------------18-18----------------------------------------------------------
G-----------------15-15-14-15-15-14-12-12-----------------------------------------------------------------
D-----------------------------------------------------------------------------------------------------------------
A----------------------------------------------------------------------------------------------------------------
E-----------------------------------------------------------------------------------------------------------------
Comments