Oleander - Why Im Here Chords & Tabs

 

Why Im Here Chords & Tabs

Oleander Chords & Tabs

Version: 8 Type: Tab 0 ratings
1 star 2 stars 3 stars 4 stars 5 stars
comments

Why Im Here Tab

   
----------------------------------------------------------------------------
		     Why I'm Here (Main Solo) - Oleander
----------------------------------------------------------------------------
Tabbed by: Tabbernacle
Email: mikejaure@hotmail.com

Alright, this is my first tab so please excuse any oddities I might have in submitting
this.  If you haven't already, take a look at "Why I'm Here Tab" (Ver. 1) by Terrence
Geno.  It is correctly done and has they lyrics but is minus the main solo.  After a
little work I came up with this below, and I think it is pretty much note for note.
In the first line I decided for the jump down to seven after the bend because it seemed
to fit the rest of the solo easier, but it is just as do-able in the first solo box.  Do
what you like.  And of course, there is always a possibility that you might find
something totally different that works better. Ciao!

Pull off=p
Hammer on=h
Bend a half step=b
Bend a full step=fb
Sustain note or bend=~
Release bend=r
Slide=\ or /
Trill (hammer on-pull off in rapid succession)=tr

Tuning: (Dropped D + Half step down) Db Ab Db Gb Bb eb
[ Tab from: http://www.guitartabs.cc/tabs/o/oleander/why_im_here_tab_ver_8.html ]
Solo:
e|-------------------------------------------------------------------------|
B|-------------------------------------------------------------------------|
G|--9h10p9--9-9h10p9--9-9h10p9--9-7fb~~r(7)p5---5-7fb-r-5--4h5p4-4---4-----|
D|--------12--------12--------12--------------7-----------------7--5---5-7-|
A|-------------------------------------------------------------------------|
E|-------------------------------------------------------------------------|

e|-------------------------------------------------------------------------|
B|---------------------------------------15--------------------------------|
G|---4b-r--7-5-4-5--4-4h5p4tr---/12-14fb~~~~r--12-14-14---9-10-10-----9----|
D|-------7--------------------------------------------------------12-------|
A|-------------------------------------------------------------------------|
E|-------------------------------------------------------------------------|

e|-------------------------------------------------------------------------|
B|-------------------------------------------------------------------------|
G|---9h10p9--9-9h10p9h10p9-------------------------------------------------|
D|---------12-------------12-10--------------------------------------------|
A|-------------------------------------------------------------------------|
E|-------------------------------------------------------------------------|

============================================================================
Comments