Oleander - Why Im Here Chords & Tabs

 

Why Im Here Chords & Tabs

Oleander Chords & Tabs

Version: 2 Type: Tab 0 ratings
1 star 2 stars 3 stars 4 stars 5 stars
comments

Why Im Here Tab

Artist: Oleander
Song: Why im here ( I can't love you anymore )
Album: february Son
tabbed by: Jake 





1st Guitar (Intro) (Clean) Repeat 2x
e--------------------------------------
B--------------------------------------
G--------------------------------------
D-------7------10-------7------2-------
A-----7--7---10--10---7--7---2--2------
E----5-----8--------5------0-----------





 Riff played at intro: 
 G---4/8---8/9/8--8/11--9------------------------------------------------ 
 D-----------------------------9---11b13----9--8--9------------9b11--- 
 A--------------------------------------------------------9--11------------ 
 E-------------------------------------------------------------------------- 




 Chorus: 
D --33333333-----55555555------X-0-X-0-000------3333333333333333-----55555555- 
A --33333333-----55555555------X-0-X-0-000------3333333333333333-----55555555- 
E --33333333-----55555555------X-0-X-0-000------3333333333333333-----55555555- 

 Riff #2: 
[ Tab from: http://www.guitartabs.cc/tabs/o/oleander/why_im_here_tab_ver_2.html ]
e--------------------------------------------------------------------------4--------- 
B--------------------------------------------------------------------------4--------- 
G---4/8---8/9/8--8/11--9-----------------------------------4---6b7---------6b7-- 
D-----------------------------9---11b13---9--8-----4/6--------------------------- 


SOLO

B------------------------------------------------------------------------------------ 
G-8h9h8---6--8----8h9h8---6--8----8h9h8---6--8-----6b8--6-4-6-4-------- 
D------------------------------------------------------------------------------6---- 


B------------------------------------------------------------------------------------ 
G-----4--6b8b6---4--3h4h3------3-------3----------------3--3--3b4b3------- 
D---------------------------------6------4-------4----4/6-6------------------6--- 

 
e--------------------------------------7----7b8----7--7----------------------------------------------------------------- 
B-----------------------------------7--7----7b8-------7-----7---9-9--------------------------------------------------- 
G-6--4--3^^b4b3^^^^^--3/8----------------------------------------6--8---8h9h8--6---8----8h9h8h9h8----6---8 

*****not exactly sure on the solo but it sounds very close*****


Comments