Oleander - Unwind Chords & Tabs

 

Unwind Chords & Tabs

Oleander Chords & Tabs

Version: 1 Type: Tab 0 ratings
1 star 2 stars 3 stars 4 stars 5 stars
comments

Unwind Tab

   
"Unwind"
by Oleander, from the CD "Unwind"

Dropped D Tuning: D A D G B E

Okay, the first note is tricky to make it sound right, because
it sounds kind of like a transition like this:

e--------------------------------------------------------|
b--------------------------------------------------------|
g--------------------------------------------------------|
d----------------------------------------------------|
a-----5--------------------------------------------------|
D--------------------------------------------------------|
                            N.H.
I assume it's accomplished with feedback, but since I'm 
transcribing this "unplugged," I can't tell for sure.
[ Tab from: http://www.guitartabs.cc/tabs/o/oleander/unwind_tab.html ]
Intro chords: 2 times gtr. 1 only, then 2 times both gtrs.
e-----------------------------------------------------------|
b-----------------------------------------------------------|
g-----------------------------------------------------------|
d---3--3--3--0--0--9--9--9-\--3--3--3--0--3--0--0--0--9--9--|
a---3--3--3--0--0--9--9--9-\--3--3--3--0--3--0--0--0--9--9--|
D---3--3--3--0--0--9--9--9-\--3--3--3--0--3--0--0--0--9--9--|
                           ^This slide can be left out--
                            Just go straight to the F



Verse
e-----------------|--------------------------------------------------|
b-----------------|--------------------------------------------------|
g-----------------|--------------------------------------------------|
d--x--x--x--x-----|--8--8--8--9--9--9--9--0--3--3--3--0--0--0--0--0--|
a--x--x--x--x-----|--8--8--8--9--9--9--9--0--3--3--3--0--0--0--0--0--|
D--x--x--x--x-----|--8--8--8--9--9--9--9--0--3--3--3--0--0--0--0--0--|

Evolution's Overrated...

(may be some wah or reverb or some other effect on muted scratches)

Chorus:

e--------------------------------------------------|
b--------------------------------------------------|
g--------------------------------------------------|
d--8--8--8--9--9--9--9--0--3--3--3--0--0--0--0--0--|
a--8--8--8--9--9--9--9--0--3--3--3--0--0--0--0--0--|
D--8--8--8--9--9--9--9--0--3--3--3--0--0--0--0--0--|

In time...

After second chorus:

e-----------------|
b-----------------|
g-----------------|  
Comments