Old Mans Child - What Malice Embrace Chords & Tabs

 

What Malice Embrace Chords & Tabs

Old Mans Child Chords & Tabs

Version: 1 Type: Tab 0 ratings
1 star 2 stars 3 stars 4 stars 5 stars
comments

What Malice Embrace Tab

Old man's child- What malice embrace.
guitar solo.
(use distortion with delay)
e------------------------------------------------------------------------------
b---------------------------------------------------13-------------------------
g------4/(9)-----11-12---------14-12-(11)------12-14-----12-14-12h14p12-11-12----
d--------------------(10)----------------------------------------------------13-
a------------------------------------------------------------------------------
E------------------------------------------------------------------------------

e------------------15-13h15p13-12--15-13h15p13-12----------------------------------------
b----------10-12----------------------------------13---15-13h15p13-12--15-13h15p13-12--10-
g--9-11-12-------------------------------------------------------------------------------
d----------------------------------------------------------------------------------------
a----------------------------------------------------------------------------------------
E----------------------------------------------------------------------------------------
[ Tab from: http://www.guitartabs.cc/tabs/o/old_mans_child/what_malice_embrace_tab.html ]
e-------------------------------------------------------------------------------------
b--9-10-12-10-9--------------12------12------15---------------------------------------
g---------------11-9-8-9-11----12--12--12--12--12---12-14-12-11-12-14-11--11-14-11----
d--------------------------------14------14------14---------------------12---------12-
a-------------------------------------------------------------------------------------
E-------------------------------------------------------------------------------------

e-------------------------------------------------------------------------------------------
b--------------12---------------------------------------------------------------------------
g-11-12-9----9----11------9----10/12-11--12/14-12--14/16-14--16/17-(17)----19-17h19p17-16-(14)-
d---------10---------13-9-------------------------------------------------------------------
a-------------------------------------------------------------------------------------------
E-------------------------------------------------------------------------------------------

e-------------------------------------------------------------------
b--14h15h17---------------------------------------------------------
g----------14h15h17-11h12h14-8h9h11-9--8--9/0-----------------------
d-------------------------------------------------------------------
a-------------------------------------------------------------------
E-------------------------------------------------------------------

/=slide
h=hammer on
p=pull off
( )= let it ring 

made by: Rainner Lins
E-mail: mayhem_666us@yahoo.com  

Comments