Old Mans Child - The Millenium King Chords & Tabs

 

The Millenium King Chords & Tabs

Old Mans Child Chords & Tabs

Version: 1 Type: Tab 0 ratings
1 star 2 stars 3 stars 4 stars 5 stars
comments

The Millenium King Tab

   
                  "The Millennium King" by Old Man's Child 
                    from the album "The Pagan Prosperity"

Tab by Mikolaj Lewandowski (black_ml@friko7.onet.pl)
Based on tab by Esa Mikkola (Finland) esamikkola@hotmail.com

Tablature Explanation :
h - hammer-on
p - pull-off
~ - vibrato
^ - bend
P.M. - palm mute
(A.H) - artificial harmonic
\ / - slide

Eb tuning

Intro
E|---------------------------------------------------------------------|
B|---------------------------------------------------------------------|
G|---------------------------------------------------------------------|
D|--------10101010*--------------------------8888-10101010*-11111111*--|
A|--/8888-----------11111111*-10101010*--------------------------------|
E|--------------------------------------9999---------------------------|
 * - 10's and 11's, not 1's and 0's.

                         Fill A                  Fill B        End with
E|----------------------|-----------------------|----------------|-----|
B|----------------------|-----------------------|----------------|-----|
G|----------------------|-----------------------|----------------|-----|
D|-------5555-3333-2222-|-------3333-5555-6666--|-----5-------2--|--3--|
A|--3333----------------|-----------------------|-55555---22222--|--3---
-E5-5--------------------|--1111-----------------|-33333---00000--|--1--|
P.M.                                              ----    ----

Verse
E|------------------------------------------------------------------------|
B|------------------------------------------------------------------------|
G|------------------------------------------------------------------------|
D|-------10-10---------------------8-8--10-10--11-11-------5-5--3-3--2-2--|
A|--8-8---------11-11--10-10--------------------------3-3-----------------|
E|----------------------------9-9-----------------------------------------|
P.M.- -  -- --  -- --  -- --  - -  - -  -- --  -- --  - -  - -  - -  - -

  Fill A                 Fill B        
E|----------------------|----------------|
B|----------------------|----------------|
G|----------------------|----------------|
D|-------3-3--5-5--6-6--|-----5-------2--|
A|----------------------|-55555---22222--|
E|--1-1-----------------|-33333---00000--|
P.M.- -  - -  - -  - -    ----    ----


"Put your spell's on me..."
E|-------------------------------------------------------|
B|-------------------------------------------------------|
G|--6-(6)-5-(5)-------------------5-------------------5--|
D|--6-(6)-5-(5)-------------------5-------------------5--|
A|--4-(4)-3-(3)-------------------3-------------------3--|
E|--------------1-1-1-1-1-1-1-1-1---1-1-1-1-1-1-1-1-1----|
P.M.            - - - - - - - - -   - - - - - - - - -

E|-------------------------------------------------------|
B|-------------------------------------------------------|
G|--6---5/9-(9)------------------------------------------|
D|--6---5/9-(9)-------------------2-------------------2--|
A|--4---3/7-(7)-------------------2-------------------2--|
E|--------------1-1-1-1-1-1-1-1-1-0-1-1-1-1-1-1-1-1-1-0--|
P.M.            - - - - - - - - -   - - - - - - - - -

"feel the human hate grow strong..."
E|-------------------------------------------------------|
B|-------------------------------------------------------|
G|--6-(6)-5-(5)-------------------5-------------------5--|
D|--6-(6)-5-(5)-------------------5-------------------5--|
A|--4-(4)-3-(3)-------------------3-------------------3--|
E|--------------1-1-1-1-1-1-1-1-1---1-1-1-1-1-1-1-1-1----|
P.M.            - - - - - - - - -   - - - - - - - - -

E|-------------------------------------------------------|
B|-------------------------------------------------------|
G|--6---5/9-X--------------------------------------------|
D|--6---5/9-X---------------------2-------------------2--|
A|--4---3/7-X---------------------2-------------------2--|
E|--------------1-1-1-1-1-1-1-1-1-0-1-1-1-1-1-1-1-1-1-0--|
P.M.            - - - - - - - - -   - - - - - - - - -

  - silence

Next Riff... 
E|--------------------------------------------|
B|--------------------------------------------|
G|--------------------------------------------|
D|--3-----6-----5-----2--3-----6-----8-----5--|
A|--3-----6-----5-----2--3-----6-----8-----5--|
E|--1-0-0-4-0-0-3-0-0-0--1-0-0-4-0-0-6-0-0-3--|
P.M.  - -   - -   - -      - -   - -   - -

After the keyboard section :
Start with     Then play
E|------------|---------------------------------------------------|
B|------------|---------------------------------------------------|
G|------------|---------------------------------------------------|
D|------------|--------6----------------------6---------10--8--6--|
A|--10--8--6--|--8--4--4--6--8--4--6----8--4--4--6--3----8--6--4--|
E|---8--6--4--|--6--2-----4--6--2--4----6--2-----4--1-------------|

Rhytm under solo :
E|---------------------------------------------------|
B|---------------------------------------------------|
G|--------6----------------------6-------------------|
D|--8--4--4--6--8--4--6----8--4--4--6--3---10--8--6--|
A|--6--2-----4--6--2--4----6--2-----4--1----8--6--4--|
E|---------------------------------------------------|

Solo :
E|--18-t-16-p-11--18-t-16-p-11--18-t-16-p-11--18-t-16-p-11--|
B|----------------------------------------------------------|
G|----------------------------------------------------------|
D|----------------------------------------------------------|
A|----------------------------------------------------------|
E|----------------------------------------------------------|
[ Tab from: http://www.guitartabs.cc/tabs/o/old_mans_child/the_millenium_king_tab.html ]
E|--19-t-16-p-11--19-t-16-p-11--19-t-16-p-11--19-t-16-p-11--|
B|----------------------------------------------------------|
G|----------------------------------------------------------|
D|----------------------------------------------------------|
A|----------------------------------------------------------|
E|----------------------------------------------------------|

E|--18-t-14-p-9--18-t-14-p-9--18-t-14-p-9--18-t-14-p-9--|
B|------------------------------------------------------|
G|------------------------------------------------------|
D|------------------------------------------------------|
A|------------------------------------------------------|
E|------------------------------------------------------|

E|--16-t-14-p-9--16-t-14-p-9--16-t-14-p-9--16-t-14-p-9--|
B|------------------------------------------------------|
G|------------------------------------------------------|
D|------------------------------------------------------|
A|------------------------------------------------------|
E|------------------------------------------------------|

E|--14-t-11-p-6--14-t-11-p-6--14-t-11-p-6--14-t-11-p-6--|
B|------------------------------------------------------|
G|------------------------------------------------------|
D|------------------------------------------------------|
A|------------------------------------------------------|
E|------------------------------------------------------|

E|--13-t-11-p-7--13-t-11-p-7--13-t-11-p-7--13-t-11-p-7--------------------|
B|-----------------------------------------------------/12-11-9--9-11-12--|
G|------------------------------------------------------------------------|
D|------------------------------------------------------------------------|
A|------------------------------------------------------------------------|
E|------------------------------------------------------------------------|

E|-----------------------------------------------------------|
B|----------------------------------------11h12h14-11h12h14--|
G|--11h13h15-11h13h15--13h15h16-13h15h16---------------------|
D|-----------------------------------------------------------|
A|-----------------------------------------------------------|
E|-----------------------------------------------------------|

E|----------------------14-13h14p13p11----------------------|
B|--12h14h16-12h14h16------------------14-12-11-9-11h12-11--|
G|----------------------------------------------------------|
D|----------------------------------------------------------|
A|----------------------------------------------------------|
E|----------------------------------------------------------|
                           
                        ...and the fast lick...
E|-----------------------------------------------------|
B|--9--------------------------------------------------|
G|----11-10-8-10-8---------11p10p8---------------------|
D|-----------------11-10-----------11p9p8-9p8p6--------|
A|----------------------------------------------9p8p6--|
E|-----------------------------------------------------|

Now the palm-muted part...
E|-------------------------------------------------------|
B|-----------------------7-7-9p7-9/11-11-9h11p9----------|
G|------------------8p6-------------------------11-10-8--|
D|--------4-6p4-6-8--------------------------------------|
A|--6p4-6------------------------------------------------|
E|-------------------------------------------------------|
P.M.- - - - - - - - - -

E|---------------11-13-14-11-11h13--------|
B|--/11-12----11-------------------11~~~--|
G|---------13-----------------------------|
D|----------------------------------------|
A|----------------------------------------|
E|----------------------------------------|

...here is my favourite part...
E|--------------------------------------------------------------------|
B|--------------------------------------------------------------------|
G|--/8--8-10-11-10-8--------------------/11--11-13-15-13-11--10-8-----|
D|--------------------/9--9-11-13-11-9----------------------------11--|
A|--------------------------------------------------------------------|
E|--------------------------------------------------------------------|

                        ...and the last "fast" lick...
E|-----------6h8h9-8~~~---------------------------------------|
B|------------------------------------------------------------|
G|--/10~~~----------------------------------------------------|
D|-----------------------------------------------8h10h11-8\---|
A|--------------------------------6h8h9--8h9h11---------------|
E|-------------------------6h8h9------------------------------|

Last Riff:
E|-----------------------------------------------------------|
B|-----------------------------------------------------------|
G|-----------------------------------------------------------|
D|-----------------------------------------------------------|
A|------------------------------444844-444844----------------|
E|--666966-666966-222622-222622---------------111411-444844--|
P.M.------ ------ ------ ------ ------ ------ ------ ------

E|---------------------------------------------------------------|
B|---------------------------------------------------------------|
G|---------------------------------------------------------------|
D|---------------------------------------------------------------|
A|-------------------------------------------------666-888-999---|
E|--666966-666966-222622-222622-444844-444844-4444---------------|
P.M.------ ------ ------ ------ ------ ------ ---  --- --- ---

E|-----------------------------------------------------------|
B|-----------------------------------------------------------|
G|-----------------------------------------------------------|
D|-----------------------------------------------------------|
A|------------------------------444844-444844----------------|
E|--666966-666966-222622-222622---------------444844-444844--|
P.M.------ ------ ------ ------ ------ ------ ------ ------

E|----------------------------------|
B|----------------------------------|
G|----------------------------------|
D|----------------------------------|
A|---------------------888-666-444--|
E|--111411-111411-1111--------------|
P.M.------ ------ ---- --- --- ---
Comments