Old Mans Child - The Dream Ghost Chords & Tabs

 

Old Mans Child Chords & Tabs

Version: 1 Type: Tab 0 ratings
1 star 2 stars 3 stars 4 stars 5 stars
comments

The Dream Ghost Tab

   
Tunning E A D G B E


riff 1

-----------------------------------------------------------------|
-----------------------------------------------------------------|
-5---5-6-6-7-7---5---5-6-6-7-7-8-5---5-6-8-7-9-------------------|
-7---7-8-8-9-9---7---7-8-8-9-9-107---7-8-8-9-9-9-9-10109-9-------|
-7---7-8-8-9-9---7---7-8-8-9-9-107---7-8-8-9-9-7-7-8-8-7-7-10109-|
-----------------------------------------------------------8-8-7-|

riff 2

-----------------------------------------------------------------|
-----------------------------------------------------------------|
-----------------------------------------------------------------|
-----------------------------------------------9-9-10109-9-------|
-7---7-8-8-9-9-7-7---7-8-8-9-9-107---7-8-8-9-9-7-7-8-8-7-7-10109-|
-5---5-6-6-7-7-5-5---5-6-6-7-7-8-5---5-6-6-7-7-------------8-8-7-|

riff 3

-----------------------------------------------------------------|
-----------------------------------------------------------------|
-5---5-6-6-7-7-5-5---5-6-6-7-7-8-6---5-6-6-7-7-------------------|
-7---7-8-8-9-9-7-7---7-8-8-9-9-107---7-8-8-9-9-9-9-10109-9-------|
-7---7-8-8-9-9-7-7---7-8-8-9-9-107---7-8-8-9-9-7-7-8-8-7-7-10109-|
-5---5-6-6-7-7-5-5---5-6-6-7-7-8-5---5-6-6-7-7-------------8-8-7-|

riff 4
[ Tab from: http://www.guitartabs.cc/tabs/o/old_mans_child/the_dream_ghost_tab.html ]
-----------------------------------------------------------------|
-----------------------------------------------------------------|
-----------------------------------------------------------------|
---------------------------------------------------2---2---------|
-------------8---------------6---------------8-----2---2---3-2-0-|
-5555555555556---5555555555554---5555555555556---0-0---0---------|
 ............    ............    ............    .

riff 5

-----------------------------------------------------------------|
-----------------------------------------------------------------|
-----5-----5---5-----5-----4---4-----5-----5---5-----5-----3---4-|
-----7-----7---7-----7-----6---6-----7-----7---7-----7-----5---6-|
-0-007-000-7---7-0-007-000-6---6-0-007-000-7---7-0-007-000-5---6-|
-----------------------------------------------------------------|
 . ..  ...       . ..  ...       . ..  ...       . ..  ...

riff 6

-----------------------------------------------------------------|
-----------------------------------------------------------------|
-----------------------------------------------------------------|
-----4-----4---4-----4-----3---3-----4-----4---4-----4-----2---3-|
-----4-----4---4-----4-----3---3-----4-----4---4-----4-----2---3-|
-2-222-222-2---2-2-222-222-1---1-2-222-222-2---2-2-222-222-0---1-|
 . ..  ...       . ..  ...       . ..  ...       . ..  ...

riff 7

---------------------------------------|
---------------------------------------|
-5-----------------------8---7---4-7-5-|
-7-----------------------10--9---6-9-7-|
-7-----------------------10--9---6-9-7-|
---------------------------------------|


riff 8

-----------------------------------------------------------------|
-4-----3-4---6---7-----4-3-------6-----4-3---8---4-----4-3-------|
-5-----4-5---7---9-----5-4-------7-----5-4---9---5-----5-4-------|
-5-----4-5---7---9-----5-4-------7-----5-4---9---5-----5-4-------|
-----------------------------------------------------------------|
-----------------------------------------------------------------|


Riff order:

1 x1
2 x1
3 x1
2 x1
4 x4
5 x2
6 x2
1 x1
2 x1
3 x1
2 x1
4 x4
7 x4
8 x4
5 x2
6 x2
2 x2
Comments