Old 97s - Moonlight Chords & Tabs

 

Moonlight Chords & Tabs

Old 97s Chords & Tabs

Version: 1 Type: Tab 0 ratings
1 star 2 stars 3 stars 4 stars 5 stars
comments

Moonlight Tab

   
-------------------------------------------------------------------------------
			     MOONLIGHT - Old 97's
-------------------------------------------------------------------------------
Tabbed by: oldweezer97s
Email:oldweezer97s@hotmail.com

FROM NEW CD: DRAG IT UP

Tuning:Standard

INTRO
e|----------------------------------------1---------------0------------------|
B|--------------------------------------1---1---1--3-3-3--1------------------|
G|-5-5-5-5-4--5-5-5--7-7-7-9-7-5-7----2-------2----1-1-1--0------------------|
D|-5--------------------------------3--------------3-3-3--2------------------|
A|-3------------------------------------------------------3------------------|
E|---------------------------------------------------------------------------|

VERSE
C                            Am
There was a girl back in my town.

                                       F
I shouldn't bring up what I can't put down.

         A#7                C
She was above reproach in every way.

C                           Am
One day I left the town I'm from.

                                   F
As hard as I tried, she would not come along.
[ Tab from: http://www.guitartabs.cc/tabs/o/old_97s/moonlight_tab.html ]
    A#7               C
She left me alone in every way.

CHORUS

F                  C          
People are laughing and they're having such fun.

Am               D         G
I wish it was happening to me.

C          
This is the moonlight.

Am
The very same moonlight.

F       A#7        C
So how happy can I be.

SOLO

e|---------------------------------------------------------------------------|
B|---------------------------------------------1-3-4-3-1---1-3-1-------------|
G|-5-5-5-5-4-2-0--------5-5-5-4-2-0----------2-----------2-------------------|
D|-5-------------2-2-2--------------2-2-3--3---------------------------------|
A|-3-------------------------------------------------------------------------|
E|---------------------------------------------------------------------------|


Now I'm alone and I'm at large.
What kind of fool puts me in charge?
God, Its a lonely way I'm living these days.
There was a girl back in my town.
That I couldn't get over she won't come 'round.
You know she left me alone in every way.

INTRO
VERSE
CHORUS
SOLO
VERSE
CHORUS(2)

                          OLD 97'S RULE!!!
 
===============================================================================
Comments