Ok Go - No Sign Of Life Chords & Tabs

 

No Sign Of Life Chords & Tabs

Ok Go Chords & Tabs

Version: 1 Type: Tab

No Sign Of Life Tab

   
No Sign of Life - Ok Go


Intro Chords: Acoustic Guitar

    D   F   G   A
e-------1---3---5-|
B---7---1---3---5-|
G---7---2---4---6-|
D---7---3---5---7-|
A---5---3---5---7-|
E---5---1---3---5-|

Verse:

Intro Chords continue underneath main riff

Main Riff
b=bend

e-------------------------------------------------|
B-------------------------------------------------|
G---------------------------------------7b-7b-7b--|
D--5-7-8-5-7*-5-7-8-5-7*-5-7-8-5-7*-5-7-----------|
A-------------------------------------------------|
E-------------------------------------------------|

*= its hard to hear with the singing over it; if you don't like the sound of it leave it as a rest.


Hold out last note with a long bend right before no sign of life part.

Chorus: No Sign of Life
[ Tab from: http://www.guitartabs.cc/tabs/o/ok_go/no_sign_of_life_tab.html ]
e----------------------------------------------------------|
B---------------------------------------7------------------|
G-----------4-7--------------------------------------------|
D----------------------------------------------------------|
A----------------------------------------------------------|
E----------------------------------------------------------|

   (On Third "No Sign of Life")(On the "Sign" of the "No Sign")


Interlude: But I gotta Hunch

    D          A          G       A
e---------------5--------3--------5----|
B------7--------5--------3--------5----|
G------7--------6--------4--------6----|
D--7-7-7-7--7-7-7-7--5-5-5-5--7-7-7-7--|
A--5-5-5-5--7-7-7-7--5-5-5-5--7-7-7-7--|
E--5-5-5-5--5-5-5-5--3-3-3-3--5-5-5-5--|


Bridge:
   A       D
e--5-------------|
B--5-------7-----|
G--6--x8---7--x8-|
D--7-------7-----|
A--7-------5-----|
E--5-------5-----|

Last Bridge you have to play D for longer.

If there's any problems you can email me at TakeAwaysMusic@yahoo.com