Ok Go - Get Over It Chords & Tabs

 

Get Over It Chords & Tabs

Ok Go Chords & Tabs

Version: 1 Type: Bass Tab 0 ratings
1 star 2 stars 3 stars 4 stars 5 stars
comments

Get Over It Bass Tab

Riff 1:
g:------------------|
d:------------------|
a:5-5---------------|
e:-----2-2-3-3-5-5-5|
[ Tab from: http://www.guitartabs.cc/tabs/o/ok_go/get_over_it_btab.html ]
Fill:
g:--------------------|
d:------------4-------|
a:--------------------|
e:3-3-3-3-3-2---3-5-6-|

Riff 2:
g:------------------------|
d:------------------------|
a:2-2----------0-0-0-1-1-1|
e:-----2-1-0-0------------|

End:
g:------|
d:------|
a:------|
e:7--7//|
Comments