Ok Go - Do What You Want Chords & Tabs

 

Do What You Want Chords & Tabs

Ok Go Chords & Tabs

Version: 3 Type: Tab

Do What You Want Tab

Intro/Verse

E|--------------------------------------------------------|
B|--------------------------------------------------------|
G|--------------------------------------------------------|
D|----------------------------4-3-2--2-2--0---------------|
A|--2-2-2-0---------------------------------4-2--2-2-0-0--|
E|-----------------4-2--2-2-------------------------------|  x2

Then after that lick play:

E|--------------------------------------------------------------------------------------|
B|--------------------------------------------------------------------------------------|
G|----------9------------------------------------------------------------------9-----9--|
D|----------9------------(let ring)--------------------------------------------9-----9--|
A|----------7------------------------------------------------------------------7-----7--|
E|--------------------------------------------------------------------------------------|

Play intro again x2

E|--------------------------------------------------------|
B|--------------------------------------------------------|
G|--------------------------------------------------------|
D|--------------------------------------------------------|
A|--2-2-2-0-------------------9-8-7--7-7--5-4-2--2-2-0-0--|
E|-----------------4-2--2-2-------------------------------|

Chorus

E|----------------------------------------------------------------|
B|----------------------------------------------------------------|
G|---------------9------9--11-----11--9------9--11----9--9--11----|
D|---------------9------9--11-----11--9------9--11----9--9--11----|
A|---------------7------7--9------9---7------7---9----7--7---9----|
E|----------------------------------------------------------------|

E|-------------------------------------------------------------------------------------|
B|-------------------------------------------------------------------------------------|
G|-------------------------------------------------------------------------------------|
D|-------------4----------------------4-4-4-4--------2-----------------------2-2-2-(2)-|
A|----2-2-6------6-2-------6-6----------------0-0-4----4-0------4-4--------------------|
E|-------------------------------------------------------------------------------------| x2

E|---------------------------------------------|
B|---------------------------------------------|
G|---------------9-9-9-9-9-9-9-9-9-9-9-9---11--|
D|---------------9-9-9-9-9-9-9-9-9-9-9-9---11--|
A|---------------7-7-7-7-7-7-7-7-7-7-7-7----9--|
E|---------------------------------------------|

Intro/Verse x4

E|--------------------------------------------------------|
B|--------------------------------------------------------|
G|--------------------------------------------------------|
D|----------------------------4-3-2--2-2--0---------------|
A|--2-2-2-0---------------------------------4-2--2-2-0-0--|
E|-----------------4-2--2-2-------------------------------|  





Chorus
[ Tab from: http://www.guitartabs.cc/tabs/o/ok_go/do_what_you_want_tab_ver_3.html ]
E|----------------------------------------------------------------|
B|----------------------------------------------------------------|
G|---------------9------9--11-----11--9------9--11----9--9--11----|
D|---------------9------9--11-----11--9------9--11----9--9--11----|
A|---------------7------7--9------9---7------7---9----7--7---9----|
E|----------------------------------------------------------------|

E|-------------------------------------------------------------------------------------|
B|-------------------------------------------------------------------------------------|
G|-------------------------------------------------------------------------------------|
D|-------------4----------------------4-4-4-4--------2-----------------------2-2-2-(2)-|
A|----2-2-6------6-2-------6-6----------------0-0-4----4-0------4-4--------------------|
E|-------------------------------------------------------------------------------------| x2


Solo

E|-------------------------------------------|----------------------------|
B|----7--5-------7--5------------------------|----7—-5-------7-—5---10----|
G|----------------------------3--------------|----------------------------|
D|-----------4------------4------------------|----------4-----------------|
A|-------------------------------------------|----------------------------|
E|-------------------------------------------|----------------------------|
	(play this x2 then…)

Bridge

E|------------------------------------------------------------------|
B|------------------------------------------------------------------|
G|-------------9----11--x-x----14----9--x-x---7---------------------|
D|----9--x-x---9----11--x-x----14----9--x-x---7----9--x-x--7--------|
A|----9--x-x---7-----9--x-x----12----7--x-x---5----9--x-x--7--------|
E|----7--x-x---------------------------------------7--x-x--5--------| x4


Intro/Verse x2

E|--------------------------------------------------------|
B|--------------------------------------------------------|
G|--------------------------------------------------------|
D|----------------------------4-3-2--2-2--0---------------|
A|--2-2-2-0---------------------------------4-2--2-2-0-0--|
E|-----------------4-2--2-2-------------------------------|  

End

E|-------------------------------------------------------------------------|
B|--------------------------------------7—-5----------—---7--5-------------|
G|--4-4-4-4-4-4-4-4-4-4-/-/-2-2-2-2----------------2----------------2------|
D|--------------------------------------------4-----------------4----------|
A|-------------------------------------------------------------------------|
E|-------------------------------------------------------------------------|

E|---------------------------------------------------------------------------------|
B|--------------------------------------7—-5----------—---7--5--7-5-7-5\10----10---|
G|--4-4-4-4-4-4-4-4-4-4-/-/-2-2-2-2----------------2-------------------------------|
D|--------------------------------------------4------------------------------------|
A|---------------------------------------------------------------------------------|
E|---------------------------------------------------------------------------------|