Ok Go - Do What You Want Chords & Tabs

 

Do What You Want Chords & Tabs

Ok Go Chords & Tabs

Version: 2 Type: Tab 0 ratings
1 star 2 stars 3 stars 4 stars 5 stars
comments

Do What You Want Tab

OK Go-Do What You Want from Oh No
Tuning: Standard.

Intro/Verse

E|--------------------------------------------------------|
B|--------------------------------------------------------|
G|--------------------------------------------------------|
D|--------------------------------------------------------|
A|--2-2-2-0-------------------9-8-7--7-7--5-4-2--2-2-0-0--|
E|-----------------4-2--2-2-------------------------------|  x2

Then after that lick play:

E|-------------------------------------------------------------------------------------------|
B|-------------------------------------------------------------------------------------------|
G|---------------9------------------------------------------------------------------9-----9--|
D|---------------9------------(let ring)------------------------------------------9-----9----|
A|---------------7------------------------------------------------------------------7-----7--|
E|-------------------------------------------------------------------------------------------|

Play intro again x2

Chorus
[ Tab from: http://www.guitartabs.cc/tabs/o/ok_go/do_what_you_want_tab_ver_2.html ]
E|----------------------------------------------------------------|
B|----------------------------------------------------------------|
G|---------------9------9--11-----11--9------9--11----9--9--11----|
D|---------------9------9--11-----11--9------9--11----9--9--11----|
A|---------------7------7---9-------9--7------7---9-----7--7---9--|
E|----------------------------------------------------------------|

E|----------------------------------------------------------------------------------|
B|----------------------------------------------------------------------------------|
G|----------------------------------------------------------------------------------|
D|-------------4----------------------4-4-4------------2---------------------2-2-2--|
A|----2-2-6------6-2-------6-6-6------------0-0-4----4-0------4-4-4-----------------|
E|----------------------------------------------------------------------------------| x2

E|---------------------------------|
B|---------------------------------|
G|---------------9-9-9-9-9-9---11--|
D|---------------9-9-9-9-9-9---11--|
A|---------------7-7-7-7-7-7----9--|
E|---------------------------------|

Intro/Verse x4

Chorus

Solo

Bridge

E|--------------------------------------------------------------------|
B|--------------------------------------------------------------------|
G|---------------------11--x-x---11----9--x-x---9---------------------|
D|----9--x-x---9----11--x-x---11----9--x-x---9----9--x-x---9----------|
A|----9--x-x---9------9--x-x----9-----7--x-x---7----9--x-x---9--------|
E|----7--x-x---7------------------------------------------7--x-x---7--| x4

Intro/verse till the end.


Full tab by Jen. Email at i_heart_kumar@yahoo.com
Comments